  0
SECTION
  2
HEADER
  9
$ACADVER
  1
AC1015
  9
$ACADMAINTVER
 70
    14
  9
$DWGCODEPAGE
  3
ANSI_1252
  9
$INSBASE
 10
0.0
 20
0.0
 30
0.0
  9
$EXTMIN
 10
-0.0075181785
 20
0.0
 30
0.0
  9
$EXTMAX
 10
8.0
 20
10.0
 30
0.0
  9
$LIMMIN
 10
0.0
 20
0.0
  9
$LIMMAX
 10
8.0
 20
10.0
  9
$ORTHOMODE
 70
     0
  9
$REGENMODE
 70
     1
  9
$FILLMODE
 70
     1
  9
$QTEXTMODE
 70
     0
  9
$MIRRTEXT
 70
     1
  9
$LTSCALE
 40
0.6518518519
  9
$ATTMODE
 70
     1
  9
$TEXTSIZE
 40
0.2
  9
$TRACEWID
 40
0.05
  9
$TEXTSTYLE
  7
Standard
  9
$CLAYER
  8
0
  9
$CELTYPE
  6
ByLayer
  9
$CECOLOR
 62
   256
  9
$CELTSCALE
 40
1.0
  9
$DISPSILH
 70
     0
  9
$DIMSCALE
 40
1.0
  9
$DIMASZ
 40
0.1875
  9
$DIMEXO
 40
0.0740740741
  9
$DIMDLI
 40
0.4503703704000001
  9
$DIMRND
 40
0.0
  9
$DIMDLE
 40
0.0
  9
$DIMEXE
 40
0.2133333333
  9
$DIMTP
 40
0.0
  9
$DIMTM
 40
0.0
  9
$DIMTXT
 40
0.1339285714
  9
$DIMCEN
 40
0.1066666667
  9
$DIMTSZ
 40
0.0
  9
$DIMTOL
 70
     0
  9
$DIMLIM
 70
     0
  9
$DIMTIH
 70
     1
  9
$DIMTOH
 70
     1
  9
$DIMSE1
 70
     0
  9
$DIMSE2
 70
     0
  9
$DIMTAD
 70
     0
  9
$DIMZIN
 70
     0
  9
$DIMBLK
  1

  9
$DIMASO
 70
     1
  9
$DIMSHO
 70
     1
  9
$DIMPOST
  1

  9
$DIMAPOST
  1

  9
$DIMALT
 70
     0
  9
$DIMALTD
 70
     2
  9
$DIMALTF
 40
25.4
  9
$DIMLFAC
 40
1.0
  9
$DIMTOFL
 70
     0
  9
$DIMTVP
 40
0.0
  9
$DIMTIX
 70
     0
  9
$DIMSOXD
 70
     0
  9
$DIMSAH
 70
     0
  9
$DIMBLK1
  1

  9
$DIMBLK2
  1

  9
$DIMSTYLE
  2
Standard
  9
$DIMCLRD
 70
     0
  9
$DIMCLRE
 70
     0
  9
$DIMCLRT
 70
     0
  9
$DIMTFAC
 40
1.0
  9
$DIMGAP
 40
0.09
  9
$DIMJUST
 70
     0
  9
$DIMSD1
 70
     0
  9
$DIMSD2
 70
     0
  9
$DIMTOLJ
 70
     1
  9
$DIMTZIN
 70
     0
  9
$DIMALTZ
 70
     0
  9
$DIMALTTZ
 70
     0
  9
$DIMUPT
 70
     0
  9
$DIMDEC
 70
     4
  9
$DIMTDEC
 70
     4
  9
$DIMALTU
 70
     2
  9
$DIMALTTD
 70
     2
  9
$DIMTXSTY
  7
Standard
  9
$DIMAUNIT
 70
     0
  9
$DIMADEC
 70
     0
  9
$DIMALTRND
 40
0.0
  9
$DIMAZIN
 70
     0
  9
$DIMDSEP
 70
    46
  9
$DIMATFIT
 70
     3
  9
$DIMFRAC
 70
     0
  9
$DIMLDRBLK
  1

  9
$DIMLUNIT
 70
     2
  9
$DIMLWD
 70
    -2
  9
$DIMLWE
 70
    -2
  9
$DIMTMOVE
 70
     0
  9
$LUNITS
 70
     2
  9
$LUPREC
 70
     4
  9
$SKETCHINC
 40
0.1
  9
$FILLETRAD
 40
0.0
  9
$AUNITS
 70
     0
  9
$AUPREC
 70
     0
  9
$MENU
  1
.
  9
$ELEVATION
 40
0.0
  9
$PELEVATION
 40
0.0
  9
$THICKNESS
 40
0.0
  9
$LIMCHECK
 70
     0
  9
$CHAMFERA
 40
0.0
  9
$CHAMFERB
 40
0.0
  9
$CHAMFERC
 40
0.0
  9
$CHAMFERD
 40
0.0
  9
$SKPOLY
 70
     0
  9
$TDCREATE
 40
2453158.383106192
  9
$TDUCREATE
 40
2453158.549772858
  9
$TDUPDATE
 40
2453476.560158228
  9
$TDUUPDATE
 40
2453476.726824896
  9
$TDINDWG
 40
0.0047222106
  9
$TDUSRTIMER
 40
0.0047222106
  9
$USRTIMER
 70
     1
  9
$ANGBASE
 50
0.0
  9
$ANGDIR
 70
     0
  9
$PDMODE
 70
     0
  9
$PDSIZE
 40
0.0
  9
$PLINEWID
 40
0.0
  9
$SPLFRAME
 70
     0
  9
$SPLINETYPE
 70
     6
  9
$SPLINESEGS
 70
     8
  9
$HANDSEED
  5
4BB
  9
$SURFTAB1
 70
     6
  9
$SURFTAB2
 70
     6
  9
$SURFTYPE
 70
     6
  9
$SURFU
 70
     6
  9
$SURFV
 70
     6
  9
$UCSBASE
  2

  9
$UCSNAME
  2

  9
$UCSORG
 10
0.0
 20
0.0
 30
0.0
  9
$UCSXDIR
 10
1.0
 20
0.0
 30
0.0
  9
$UCSYDIR
 10
0.0
 20
1.0
 30
0.0
  9
$UCSORTHOREF
  2

  9
$UCSORTHOVIEW
 70
     0
  9
$UCSORGTOP
 10
0.0
 20
0.0
 30
0.0
  9
$UCSORGBOTTOM
 10
0.0
 20
0.0
 30
0.0
  9
$UCSORGLEFT
 10
0.0
 20
0.0
 30
0.0
  9
$UCSORGRIGHT
 10
0.0
 20
0.0
 30
0.0
  9
$UCSORGFRONT
 10
0.0
 20
0.0
 30
0.0
  9
$UCSORGBACK
 10
0.0
 20
0.0
 30
0.0
  9
$PUCSBASE
  2

  9
$PUCSNAME
  2

  9
$PUCSORG
 10
0.0
 20
0.0
 30
0.0
  9
$PUCSXDIR
 10
1.0
 20
0.0
 30
0.0
  9
$PUCSYDIR
 10
0.0
 20
1.0
 30
0.0
  9
$PUCSORTHOREF
  2

  9
$PUCSORTHOVIEW
 70
     0
  9
$PUCSORGTOP
 10
0.0
 20
0.0
 30
0.0
  9
$PUCSORGBOTTOM
 10
0.0
 20
0.0
 30
0.0
  9
$PUCSORGLEFT
 10
0.0
 20
0.0
 30
0.0
  9
$PUCSORGRIGHT
 10
0.0
 20
0.0
 30
0.0
  9
$PUCSORGFRONT
 10
0.0
 20
0.0
 30
0.0
  9
$PUCSORGBACK
 10
0.0
 20
0.0
 30
0.0
  9
$USERI1
 70
     0
  9
$USERI2
 70
     0
  9
$USERI3
 70
     0
  9
$USERI4
 70
     0
  9
$USERI5
 70
     0
  9
$USERR1
 40
0.0
  9
$USERR2
 40
0.0
  9
$USERR3
 40
0.0
  9
$USERR4
 40
0.0
  9
$USERR5
 40
0.0
  9
$WORLDVIEW
 70
     1
  9
$SHADEDGE
 70
     3
  9
$SHADEDIF
 70
    70
  9
$TILEMODE
 70
     1
  9
$MAXACTVP
 70
    64
  9
$PINSBASE
 10
0.0
 20
0.0
 30
0.0
  9
$PLIMCHECK
 70
     0
  9
$PEXTMIN
 10
1.000000000000000E+20
 20
1.000000000000000E+20
 30
1.000000000000000E+20
  9
$PEXTMAX
 10
-1.000000000000000E+20
 20
-1.000000000000000E+20
 30
-1.000000000000000E+20
  9
$PLIMMIN
 10
0.0
 20
0.0
  9
$PLIMMAX
 10
12.0
 20
9.0
  9
$UNITMODE
 70
     0
  9
$VISRETAIN
 70
     1
  9
$PLINEGEN
 70
     0
  9
$PSLTSCALE
 70
     1
  9
$TREEDEPTH
 70
  3020
  9
$CMLSTYLE
  2
Standard
  9
$CMLJUST
 70
     0
  9
$CMLSCALE
 40
1.0
  9
$PROXYGRAPHICS
 70
     1
  9
$MEASUREMENT
 70
     0
  9
$CELWEIGHT
370
    -1
  9
$ENDCAPS
280
     0
  9
$JOINSTYLE
280
     0
  9
$LWDISPLAY
290
     0
  9
$INSUNITS
 70
     0
  9
$HYPERLINKBASE
  1

  9
$STYLESHEET
  1

  9
$XEDIT
290
     1
  9
$CEPSNTYPE
380
     0
  9
$PSTYLEMODE
290
     1
  9
$FINGERPRINTGUID
  2
{E97943DA-AD54-4B15-B9CA-EC8E12D7C1E2}
  9
$VERSIONGUID
  2
{1215AB90-EC41-41A4-9BF6-DF4D578160F2}
  9
$EXTNAMES
290
     1
  9
$PSVPSCALE
 40
0.0
  9
$OLESTARTUP
290
     0
  0
ENDSEC
  0
SECTION
  2
CLASSES
  0
CLASS
  1
ACDBDICTIONARYWDFLT
  2
AcDbDictionaryWithDefault
  3
AutoCAD 2000
 90
        0
280
     0
281
     0
  0
CLASS
  1
ACDBPLACEHOLDER
  2
AcDbPlaceHolder
  3
AutoCAD 2000
 90
        0
280
     0
281
     0
  0
CLASS
  1
LAYOUT
  2
AcDbLayout
  3
AutoCAD 2000
 90
        0
280
     0
281
     0
  0
CLASS
  1
DICTIONARYVAR
  2
AcDbDictionaryVar
  3
AutoCAD 2000
 90
        0
280
     0
281
     0
  0
ENDSEC
  0
SECTION
  2
TABLES
  0
TABLE
  2
VPORT
  5
8
330
0
100
AcDbSymbolTable
 70
     5
  0
VPORT
  5
4BA
330
8
100
AcDbSymbolTableRecord
100
AcDbViewportTableRecord
  2
*Active
 70
     0
 10
0.0
 20
0.0
 11
1.0
 21
1.0
 12
3.896424259925094
 22
5.140547358243765
 13
0.0
 23
0.0
 14
1.0
 24
1.0
 15
0.0
 25
0.0
 16
0.0
 26
0.0
 36
1.0
 17
0.0
 27
0.0
 37
0.0
 40
0.8267550406234038
 41
2.151057401812688
 42
50.0
 43
0.0
 44
0.0
 50
0.0
 51
0.0
 71
     0
 72
   100
 73
     1
 74
     1
 75
     0
 76
     0
 77
     0
 78
     0
281
     0
 65
     1
110
0.0
120
0.0
130
0.0
111
1.0
121
0.0
131
0.0
112
0.0
122
1.0
132
0.0
 79
     0
146
0.0
  0
ENDTAB
  0
TABLE
  2
LTYPE
  5
5
330
0
100
AcDbSymbolTable
 70
     6
  0
LTYPE
  5
13
330
5
100
AcDbSymbolTableRecord
100
AcDbLinetypeTableRecord
  2
ByBlock
 70
     0
  3

 72
    65
 73
     0
 40
0.0
  0
LTYPE
  5
14
330
5
100
AcDbSymbolTableRecord
100
AcDbLinetypeTableRecord
  2
ByLayer
 70
     0
  3

 72
    65
 73
     0
 40
0.0
  0
LTYPE
  5
15
330
5
100
AcDbSymbolTableRecord
100
AcDbLinetypeTableRecord
  2
CONTINUOUS
 70
     0
  3
Solid line
 72
    65
 73
     0
 40
0.0
  0
LTYPE
  5
22
330
5
100
AcDbSymbolTableRecord
100
AcDbLinetypeTableRecord
  2
CENTER
 70
     0
  3
____ _ ____ _ ____ _ ____ _ ____ _ ____ _ ____
 72
    65
 73
     4
 40
0.6
 49
0.375
 74
     0
 49
-0.075
 74
     0
 49
0.075
 74
     0
 49
-0.075
 74
     0
  0
LTYPE
  5
23
330
5
100
AcDbSymbolTableRecord
100
AcDbLinetypeTableRecord
  2
HIDDEN
 70
     0
  3
- - - - - - - - - - - - - - - - - - - -
 72
    65
 73
     2
 40
0.2
 49
0.1
 74
     0
 49
-0.1
 74
     0
  0
LTYPE
  5
24
330
5
100
AcDbSymbolTableRecord
100
AcDbLinetypeTableRecord
  2
PHANTOM
 70
     0
  3
_____ _ _ _____ _ _ _____ _ _ _____
 72
    65
 73
     6
 40
0.8
 49
0.45
 74
     0
 49
-0.05
 74
     0
 49
0.1
 74
     0
 49
-0.05
 74
     0
 49
0.1
 74
     0
 49
-0.05
 74
     0
  0
LTYPE
  5
25
330
5
100
AcDbSymbolTableRecord
100
AcDbLinetypeTableRecord
  2
DOT
 70
     0
  3
. . . . . . . . . . . . . . . . . . . .
 72
    65
 73
     2
 40
0.2
 49
0.1
 74
     0
 49
-0.1
 74
     0
  0
LTYPE
  5
26
330
5
100
AcDbSymbolTableRecord
100
AcDbLinetypeTableRecord
  2
DASHED
 70
     0
  3
- - - - - - - - - - - - - - - - - - - -
 72
    65
 73
     2
 40
0.2
 49
0.1
 74
     0
 49
-0.1
 74
     0
  0
ENDTAB
  0
TABLE
  2
LAYER
  5
2
330
0
100
AcDbSymbolTable
 70
     4
  0
LAYER
  5
10
330
2
100
AcDbSymbolTableRecord
100
AcDbLayerTableRecord
  2
0
 70
     0
 62
     7
  6
CONTINUOUS
370
    -3
390
F
  0
LAYER
  5
27
330
2
100
AcDbSymbolTableRecord
100
AcDbLayerTableRecord
  2
DEFAULT_1
 70
     0
 62
     7
  6
CENTER
370
    -3
390
F
  0
LAYER
  5
28
330
2
100
AcDbSymbolTableRecord
100
AcDbLayerTableRecord
  2
DEFAULT_2
 70
     0
 62
     8
  6
HIDDEN
370
    -3
390
F
  0
LAYER
  5
29
330
2
100
AcDbSymbolTableRecord
100
AcDbLayerTableRecord
  2
DEFAULT_3
 70
     0
 62
     7
  6
PHANTOM
370
    -3
390
F
  0
ENDTAB
  0
TABLE
  2
STYLE
  5
3
330
0
100
AcDbSymbolTable
 70
     1
  0
STYLE
  5
11
330
3
100
AcDbSymbolTableRecord
100
AcDbTextStyleTableRecord
  2
Standard
 70
     0
 40
0.0
 41
1.0
 50
0.0
 71
     0
 42
0.2
  3
txt
  4

  0
ENDTAB
  0
TABLE
  2
VIEW
  5
6
330
0
100
AcDbSymbolTable
 70
     0
  0
ENDTAB
  0
TABLE
  2
UCS
  5
7
330
0
100
AcDbSymbolTable
 70
     0
  0
ENDTAB
  0
TABLE
  2
APPID
  5
9
330
0
100
AcDbSymbolTable
 70
     2
  0
APPID
  5
12
330
9
100
AcDbSymbolTableRecord
100
AcDbRegAppTableRecord
  2
ACAD
 70
     0
  0
APPID
  5
4B5
330
9
100
AcDbSymbolTableRecord
100
AcDbRegAppTableRecord
  2
DCO15
 70
     0
  0
ENDTAB
  0
TABLE
  2
DIMSTYLE
  5
A
330
0
100
AcDbSymbolTable
 70
     1
100
AcDbDimStyleTable
 71
     0
  0
DIMSTYLE
105
476
330
A
100
AcDbSymbolTableRecord
100
AcDbDimStyleTableRecord
  2
Standard
 70
     0
340
11
  0
ENDTAB
  0
TABLE
  2
BLOCK_RECORD
  5
1
330
0
100
AcDbSymbolTable
 70
     8
  0
BLOCK_RECORD
  5
1E
330
1
100
AcDbSymbolTableRecord
100
AcDbBlockTableRecord
  2
*Model_Space
340
21
  0
BLOCK_RECORD
  5
1A
330
1
100
AcDbSymbolTableRecord
100
AcDbBlockTableRecord
  2
*Paper_Space
340
1D
  0
BLOCK_RECORD
  5
2C
330
1
100
AcDbSymbolTableRecord
100
AcDbBlockTableRecord
  2
SCHLEGEL_BL0
340
0
102
{BLKREFS
331
24A
102
}
  0
BLOCK_RECORD
  5
1B8
330
1
100
AcDbSymbolTableRecord
100
AcDbBlockTableRecord
  2
*D1
340
0
  0
BLOCK_RECORD
  5
1CE
330
1
100
AcDbSymbolTableRecord
100
AcDbBlockTableRecord
  2
*D2
340
0
  0
BLOCK_RECORD
  5
1E2
330
1
100
AcDbSymbolTableRecord
100
AcDbBlockTableRecord
  2
*D3
340
0
  0
BLOCK_RECORD
  5
1F7
330
1
100
AcDbSymbolTableRecord
100
AcDbBlockTableRecord
  2
*D4
340
0
  0
BLOCK_RECORD
  5
20B
330
1
100
AcDbSymbolTableRecord
100
AcDbBlockTableRecord
  2
*D5
340
0
  0
BLOCK_RECORD
  5
21F
330
1
100
AcDbSymbolTableRecord
100
AcDbBlockTableRecord
  2
*D6
340
0
  0
BLOCK_RECORD
  5
234
330
1
100
AcDbSymbolTableRecord
100
AcDbBlockTableRecord
  2
*D7
340
0
  0
ENDTAB
  0
ENDSEC
  0
SECTION
  2
BLOCKS
  0
BLOCK
  5
1F
330
1E
100
AcDbEntity
  8
0
100
AcDbBlockBegin
  2
*Model_Space
 70
     0
 10
0.0
 20
0.0
 30
0.0
  3
*Model_Space
  1

  0
ENDBLK
  5
20
330
1E
100
AcDbEntity
  8
0
100
AcDbBlockEnd
  0
BLOCK
  5
1B
330
1A
100
AcDbEntity
 67
     1
  8
0
100
AcDbBlockBegin
  2
*Paper_Space
 70
     0
 10
0.0
 20
0.0
 30
0.0
  3
*Paper_Space
  1

  0
ENDBLK
  5
1C
330
1A
100
AcDbEntity
 67
     1
  8
0
100
AcDbBlockEnd
  0
BLOCK
  5
2D
330
2C
100
AcDbEntity
  8
0
  6
Continuous
 62
     2
100
AcDbBlockBegin
  2
SCHLEGEL_BL0
 70
     0
 10
0.0
 20
0.0
 30
0.0
  3
SCHLEGEL_BL0
  1

  0
LINE
  5
2E
330
2C
100
AcDbEntity
  8
0
  6
Continuous
 62
     7
100
AcDbLine
 10
0.077848713
 20
9.0733772312
 30
0.0
 11
0.9214327515999999
 21
9.0733772312
 31
0.0
  0
LINE
  5
2F
330
2C
100
AcDbEntity
  8
0
  6
Continuous
 62
     7
100
AcDbLine
 10
0.9214327515999999
 20
9.0733772312
 30
0.0
 11
0.9340409432999999
 21
9.0750376559
 31
0.0
  0
LINE
  5
30
330
2C
100
AcDbEntity
  8
0
  6
Continuous
 62
     7
100
AcDbLine
 10
0.9340409432999999
 20
9.0750376559
 30
0.0
 11
0.9457913325999999
 21
9.079903553099999
 31
0.0
  0
LINE
  5
31
330
2C
100
AcDbEntity
  8
0
  6
Continuous
 62
     7
100
AcDbLine
 10
0.9457913325999999
 20
9.079903553099999
 30
0.0
 11
0.9558792905
 21
9.087645847599999
 31
0.0
  0
LINE
  5
32
330
2C
100
AcDbEntity
  8
0
  6
Continuous
 62
     7
100
AcDbLine
 10
0.9558792905
 20
9.087645847599999
 30
0.0
 11
0.9636195784999998
 21
9.0977348088
 31
0.0
  0
LINE
  5
33
330
2C
100
AcDbEntity
  8
0
  6
Continuous
 62
     7
100
AcDbLine
 10
0.9636195784999998
 20
9.0977348088
 30
0.0
 11
0.9684884854999999
 21
9.109483191499998
 31
0.0
  0
LINE
  5
34
330
2C
100
AcDbEntity
  8
0
  6
Continuous
 62
     7
100
AcDbLine
 10
0.9684884854999999
 20
9.109483191499998
 30
0.0
 11
0.9701469036
 21
9.1220923865
 31
0.0
  0
LINE
  5
35
330
2C
100
AcDbEntity
  8
0
  6
Continuous
 62
     7
100
AcDbLine
 10
0.9701469036
 20
9.1220923865
 30
0.0
 11
0.9701469036
 21
9.8746610726
 31
0.0
  0
LINE
  5
36
330
2C
100
AcDbEntity
  8
0
  6
Continuous
 62
     7
100
AcDbLine
 10
0.9701469036
 20
9.8746610726
 30
0.0
 11
0.9684884854999999
 21
9.887270267599999
 31
0.0
  0
LINE
  5
37
330
2C
100
AcDbEntity
  8
0
  6
Continuous
 62
     7
100
AcDbLine
 10
0.9684884854999999
 20
9.887270267599999
 30
0.0
 11
0.9636195784999998
 21
9.8990186503
 31
0.0
  0
LINE
  5
38
330
2C
100
AcDbEntity
  8
0
  6
Continuous
 62
     7
100
AcDbLine
 10
0.9636195784999998
 20
9.8990186503
 30
0.0
 11
0.9558792905
 21
9.9091086148
 31
0.0
  0
LINE
  5
39
330
2C
100
AcDbEntity
  8
0
  6
Continuous
 62
     7
100
AcDbLine
 10
0.9558792905
 20
9.9091086148
 30
0.0
 11
0.9457913325999999
 21
9.916849905999999
 31
0.0
  0
LINE
  5
3A
330
2C
100
AcDbEntity
  8
0
  6
Continuous
 62
     7
100
AcDbLine
 10
0.9457913325999999
 20
9.916849905999999
 30
0.0
 11
0.9340409432999999
 21
9.921716806499999
 31
0.0
  0
LINE
  5
3B
330
2C
100
AcDbEntity
  8
0
  6
Continuous
 62
     7
100
AcDbLine
 10
0.9340409432999999
 20
9.921716806499999
 30
0.0
 11
0.9214327515999999
 21
9.923377231199999
 31
0.0
  0
LINE
  5
3C
330
2C
100
AcDbEntity
  8
0
  6
Continuous
 62
     7
100
AcDbLine
 10
0.9214327515999999
 20
9.923377231199999
 30
0.0
 11
0.077848713
 21
9.923377231199999
 31
0.0
  0
LINE
  5
3D
330
2C
100
AcDbEntity
  8
0
  6
Continuous
 62
     7
100
AcDbLine
 10
0.077848713
 20
9.923377231199999
 30
0.0
 11
0.065239518
 21
9.921716806499999
 31
0.0
  0
LINE
  5
3E
330
2C
100
AcDbEntity
  8
0
  6
Continuous
 62
     7
100
AcDbLine
 10
0.065239518
 20
9.921716806499999
 30
0.0
 11
0.0534921386
 21
9.916849905999999
 31
0.0
  0
LINE
  5
3F
330
2C
100
AcDbEntity
  8
0
  6
Continuous
 62
     7
100
AcDbLine
 10
0.0534921386
 20
9.916849905999999
 30
0.0
 11
0.0434021741
 21
9.9091086148
 31
0.0
  0
LINE
  5
40
330
2C
100
AcDbEntity
  8
0
  6
Continuous
 62
     7
100
AcDbLine
 10
0.0434021741
 20
9.9091086148
 30
0.0
 11
0.0356618861
 21
9.8990186503
 31
0.0
  0
LINE
  5
41
330
2C
100
AcDbEntity
  8
0
  6
Continuous
 62
     7
100
AcDbLine
 10
0.0356618861
 20
9.8990186503
 30
0.0
 11
0.0307929791
 21
9.887270267599999
 31
0.0
  0
LINE
  5
42
330
2C
100
AcDbEntity
  8
0
  6
Continuous
 62
     7
100
AcDbLine
 10
0.0307929791
 20
9.887270267599999
 30
0.0
 11
0.029134561
 21
9.8746610726
 31
0.0
  0
LINE
  5
43
330
2C
100
AcDbEntity
  8
0
  6
Continuous
 62
     7
100
AcDbLine
 10
0.029134561
 20
9.8746610726
 30
0.0
 11
0.029134561
 21
9.1220923865
 31
0.0
  0
LINE
  5
44
330
2C
100
AcDbEntity
  8
0
  6
Continuous
 62
     7
100
AcDbLine
 10
0.029134561
 20
9.1220923865
 30
0.0
 11
0.0307929791
 21
9.109483191499998
 31
0.0
  0
LINE
  5
45
330
2C
100
AcDbEntity
  8
0
  6
Continuous
 62
     7
100
AcDbLine
 10
0.0307929791
 20
9.109483191499998
 30
0.0
 11
0.0356618861
 21
9.0977348088
 31
0.0
  0
LINE
  5
46
330
2C
100
AcDbEntity
  8
0
  6
Continuous
 62
     7
100
AcDbLine
 10
0.0356618861
 20
9.0977348088
 30
0.0
 11
0.0434021741
 21
9.087645847599999
 31
0.0
  0
LINE
  5
47
330
2C
100
AcDbEntity
  8
0
  6
Continuous
 62
     7
100
AcDbLine
 10
0.0434021741
 20
9.087645847599999
 30
0.0
 11
0.053490132
 21
9.079903553099999
 31
0.0
  0
LINE
  5
48
330
2C
100
AcDbEntity
  8
0
  6
Continuous
 62
     7
100
AcDbLine
 10
0.053490132
 20
9.079903553099999
 30
0.0
 11
0.065239518
 21
9.0750376559
 31
0.0
  0
LINE
  5
49
330
2C
100
AcDbEntity
  8
0
  6
Continuous
 62
     7
100
AcDbLine
 10
0.065239518
 20
9.0750376559
 30
0.0
 11
0.077848713
 21
9.0733772312
 31
0.0
  0
LINE
  5
4A
330
2C
100
AcDbEntity
  8
0
  6
Continuous
 62
     7
100
AcDbLine
 10
0.2851620177
 20
9.340695575999999
 30
0.0
 11
0.1556157826
 21
9.340695575999999
 31
0.0
  0
LINE
  5
4B
330
2C
100
AcDbEntity
  8
0
  6
Continuous
 62
     7
100
AcDbLine
 10
0.1556157826
 20
9.340695575999999
 30
0.0
 11
0.1483149302
 21
9.338890679299998
 31
0.0
  0
LINE
  5
4C
330
2C
100
AcDbEntity
  8
0
  6
Continuous
 62
     7
100
AcDbLine
 10
0.1483149302
 20
9.338890679299998
 30
0.0
 11
0.1426945682
 21
9.333892349400001
 31
0.0
  0
LINE
  5
4D
330
2C
100
AcDbEntity
  8
0
  6
Continuous
 62
     7
100
AcDbLine
 10
0.1426945682
 20
9.333892349400001
 30
0.0
 11
0.140049928
 21
9.326851345999999
 31
0.0
  0
LINE
  5
4E
330
2C
100
AcDbEntity
  8
0
  6
Continuous
 62
     7
100
AcDbLine
 10
0.140049928
 20
9.326851345999999
 30
0.0
 11
0.1409899993
 21
9.319388965999999
 31
0.0
  0
LINE
  5
4F
330
2C
100
AcDbEntity
  8
0
  6
Continuous
 62
     7
100
AcDbLine
 10
0.1409899993
 20
9.319388965999999
 30
0.0
 11
0.1944045076
 21
9.1806858147
 31
0.0
  0
LINE
  5
50
330
2C
100
AcDbEntity
  8
0
  6
Continuous
 62
     7
100
AcDbLine
 10
0.1944045076
 20
9.1806858147
 30
0.0
 11
0.1945519894
 21
9.1773760013
 31
0.0
  0
LINE
  5
51
330
2C
100
AcDbEntity
  8
0
  6
Continuous
 62
     7
100
AcDbLine
 10
0.1945519894
 20
9.1773760013
 30
0.0
 11
0.1926778666
 21
9.174645079199999
 31
0.0
  0
LINE
  5
52
330
2C
100
AcDbEntity
  8
0
  6
Continuous
 62
     7
100
AcDbLine
 10
0.1926778666
 20
9.174645079199999
 30
0.0
 11
0.1895356006
 21
9.1735936441
 31
0.0
  0
LINE
  5
53
330
2C
100
AcDbEntity
  8
0
  6
Continuous
 62
     7
100
AcDbLine
 10
0.1895356006
 20
9.1735936441
 30
0.0
 11
0.0988061822
 21
9.1735936441
 31
0.0
  0
LINE
  5
54
330
2C
100
AcDbEntity
  8
0
  6
Continuous
 62
     7
100
AcDbLine
 10
0.0988061822
 20
9.1735936441
 30
0.0
 11
0.0904137637
 21
9.142269305700001
 31
0.0
  0
LINE
  5
55
330
2C
100
AcDbEntity
  8
0
  6
Continuous
 62
     7
100
AcDbLine
 10
0.0904137637
 20
9.142269305700001
 30
0.0
 11
0.2199579923
 21
9.142269305700001
 31
0.0
  0
LINE
  5
56
330
2C
100
AcDbEntity
  8
0
  6
Continuous
 62
     7
100
AcDbLine
 10
0.2199579923
 20
9.142269305700001
 30
0.0
 11
0.2272608512
 21
9.144073199099999
 31
0.0
  0
LINE
  5
57
330
2C
100
AcDbEntity
  8
0
  6
Continuous
 62
     7
100
AcDbLine
 10
0.2272608512
 20
9.144073199099999
 30
0.0
 11
0.2328812133
 21
9.1490715289
 31
0.0
  0
LINE
  5
58
330
2C
100
AcDbEntity
  8
0
  6
Continuous
 62
     7
100
AcDbLine
 10
0.2328812133
 20
9.1490715289
 30
0.0
 11
0.2355258535
 21
9.156113535599999
 31
0.0
  0
LINE
  5
59
330
2C
100
AcDbEntity
  8
0
  6
Continuous
 62
     7
100
AcDbLine
 10
0.2355258535
 20
9.156113535599999
 30
0.0
 11
0.2345837756
 21
9.163574912299999
 31
0.0
  0
LINE
  5
5A
330
2C
100
AcDbEntity
  8
0
  6
Continuous
 62
     7
100
AcDbLine
 10
0.2345837756
 20
9.163574912299999
 30
0.0
 11
0.1825016202
 21
9.298822775099999
 31
0.0
  0
LINE
  5
5B
330
2C
100
AcDbEntity
  8
0
  6
Continuous
 62
     7
100
AcDbLine
 10
0.1825016202
 20
9.298822775099999
 30
0.0
 11
0.1823521318
 21
9.302132588400001
 31
0.0
  0
LINE
  5
5C
330
2C
100
AcDbEntity
  8
0
  6
Continuous
 62
     7
100
AcDbLine
 10
0.1823521318
 20
9.302132588400001
 30
0.0
 11
0.1842272579
 21
9.304862507200001
 31
0.0
  0
LINE
  5
5D
330
2C
100
AcDbEntity
  8
0
  6
Continuous
 62
     7
100
AcDbLine
 10
0.1842272579
 20
9.304862507200001
 30
0.0
 11
0.1873695239
 21
9.305914945599999
 31
0.0
  0
LINE
  5
5E
330
2C
100
AcDbEntity
  8
0
  6
Continuous
 62
     7
100
AcDbLine
 10
0.1873695239
 20
9.305914945599999
 30
0.0
 11
0.2758435738
 21
9.305914945599999
 31
0.0
  0
LINE
  5
5F
330
2C
100
AcDbEntity
  8
0
  6
Continuous
 62
     7
100
AcDbLine
 10
0.2758435738
 20
9.305914945599999
 30
0.0
 11
0.2851620177
 21
9.340695575999999
 31
0.0
  0
LINE
  5
60
330
2C
100
AcDbEntity
  8
0
  6
Continuous
 62
     7
100
AcDbLine
 10
0.3654262457
 20
9.288357584699999
 30
0.0
 11
0.2762388653
 21
9.288357584699999
 31
0.0
  0
LINE
  5
61
330
2C
100
AcDbEntity
  8
0
  6
Continuous
 62
     7
100
AcDbLine
 10
0.2762388653
 20
9.288357584699999
 30
0.0
 11
0.2696162287
 21
9.286888786
 31
0.0
  0
LINE
  5
62
330
2C
100
AcDbEntity
  8
0
  6
Continuous
 62
     7
100
AcDbLine
 10
0.2696162287
 20
9.286888786
 30
0.0
 11
0.2642336435
 21
9.282759294699999
 31
0.0
  0
LINE
  5
63
330
2C
100
AcDbEntity
  8
0
  6
Continuous
 62
     7
100
AcDbLine
 10
0.2642336435
 20
9.282759294699999
 30
0.0
 11
0.261100407
 21
9.276740631399999
 31
0.0
  0
LINE
  5
64
330
2C
100
AcDbEntity
  8
0
  6
Continuous
 62
     7
100
AcDbLine
 10
0.261100407
 20
9.276740631399999
 30
0.0
 11
0.2396764136
 21
9.196779393299999
 31
0.0
  0
LINE
  5
65
330
2C
100
AcDbEntity
  8
0
  6
Continuous
 62
     7
100
AcDbLine
 10
0.2396764136
 20
9.196779393299999
 30
0.0
 11
0.2394426499
 21
9.189665150699999
 31
0.0
  0
LINE
  5
66
330
2C
100
AcDbEntity
  8
0
  6
Continuous
 62
     7
100
AcDbLine
 10
0.2394426499
 20
9.189665150699999
 30
0.0
 11
0.2423802472
 21
9.1831809665
 31
0.0
  0
LINE
  5
67
330
2C
100
AcDbEntity
  8
0
  6
Continuous
 62
     7
100
AcDbLine
 10
0.2423802472
 20
9.1831809665
 30
0.0
 11
0.2478812192
 21
9.178666216499999
 31
0.0
  0
LINE
  5
68
330
2C
100
AcDbEntity
  8
0
  6
Continuous
 62
     7
100
AcDbLine
 10
0.2478812192
 20
9.178666216499999
 30
0.0
 11
0.2548148718
 21
9.177049935999999
 31
0.0
  0
LINE
  5
69
330
2C
100
AcDbEntity
  8
0
  6
Continuous
 62
     7
100
AcDbLine
 10
0.2548148718
 20
9.177049935999999
 30
0.0
 11
0.3356008042
 21
9.177049935999999
 31
0.0
  0
LINE
  5
6A
330
2C
100
AcDbEntity
  8
0
  6
Continuous
 62
     7
100
AcDbLine
 10
0.3356008042
 20
9.177049935999999
 30
0.0
 11
0.343994226
 21
9.208373271199999
 31
0.0
  0
LINE
  5
6B
330
2C
100
AcDbEntity
  8
0
  6
Continuous
 62
     7
100
AcDbLine
 10
0.343994226
 20
9.208373271199999
 30
0.0
 11
0.2820107223
 21
9.208373271199999
 31
0.0
  0
LINE
  5
6C
330
2C
100
AcDbEntity
  8
0
  6
Continuous
 62
     7
100
AcDbLine
 10
0.2820107223
 20
9.208373271199999
 30
0.0
 11
0.2778711982
 21
9.210414941499999
 31
0.0
  0
LINE
  5
6D
330
2C
100
AcDbEntity
  8
0
  6
Continuous
 62
     7
100
AcDbLine
 10
0.2778711982
 20
9.210414941499999
 30
0.0
 11
0.2769722613
 21
9.2149407275
 31
0.0
  0
LINE
  5
6E
330
2C
100
AcDbEntity
  8
0
  6
Continuous
 62
     7
100
AcDbLine
 10
0.2769722613
 20
9.2149407275
 30
0.0
 11
0.2872137208
 21
9.253166613699999
 31
0.0
  0
LINE
  5
6F
330
2C
100
AcDbEntity
  8
0
  6
Continuous
 62
     7
100
AcDbLine
 10
0.2872137208
 20
9.253166613699999
 30
0.0
 11
0.2890778108
 21
9.2559547226
 31
0.0
  0
LINE
  5
70
330
2C
100
AcDbEntity
  8
0
  6
Continuous
 62
     7
100
AcDbLine
 10
0.2890778108
 20
9.2559547226
 30
0.0
 11
0.2922521817
 21
9.257032242899999
 31
0.0
  0
LINE
  5
71
330
2C
100
AcDbEntity
  8
0
  6
Continuous
 62
     7
100
AcDbLine
 10
0.2922521817
 20
9.257032242899999
 30
0.0
 11
0.3570338271
 21
9.257032242899999
 31
0.0
  0
LINE
  5
72
330
2C
100
AcDbEntity
  8
0
  6
Continuous
 62
     7
100
AcDbLine
 10
0.3570338271
 20
9.257032242899999
 30
0.0
 11
0.3654262457
 21
9.288357584699999
 31
0.0
  0
LINE
  5
73
330
2C
100
AcDbEntity
  8
0
  6
Continuous
 62
     7
100
AcDbLine
 10
0.3863746855
 20
9.340695575999999
 30
0.0
 11
0.3425264306
 21
9.177049935999999
 31
0.0
  0
LINE
  5
74
330
2C
100
AcDbEntity
  8
0
  6
Continuous
 62
     7
100
AcDbLine
 10
0.3425264306
 20
9.177049935999999
 30
0.0
 11
0.3785902533
 21
9.177049935999999
 31
0.0
  0
LINE
  5
75
330
2C
100
AcDbEntity
  8
0
  6
Continuous
 62
     7
100
AcDbLine
 10
0.3785902533
 20
9.177049935999999
 30
0.0
 11
0.4000222729
 21
9.257032242899999
 31
0.0
  0
LINE
  5
76
330
2C
100
AcDbEntity
  8
0
  6
Continuous
 62
     7
100
AcDbLine
 10
0.4000222729
 20
9.257032242899999
 30
0.0
 11
0.4220632822
 21
9.257032242899999
 31
0.0
  0
LINE
  5
77
330
2C
100
AcDbEntity
  8
0
  6
Continuous
 62
     7
100
AcDbLine
 10
0.4220632822
 20
9.257032242899999
 30
0.0
 11
0.4262098292000001
 21
9.254988566099999
 31
0.0
  0
LINE
  5
78
330
2C
100
AcDbEntity
  8
0
  6
Continuous
 62
     7
100
AcDbLine
 10
0.4262098292000001
 20
9.254988566099999
 30
0.0
 11
0.4271117759000001
 21
9.250455757200001
 31
0.0
  0
LINE
  5
79
330
2C
100
AcDbEntity
  8
0
  6
Continuous
 62
     7
100
AcDbLine
 10
0.4271117759000001
 20
9.250455757200001
 30
0.0
 11
0.4074435186
 21
9.177049935999999
 31
0.0
  0
LINE
  5
7A
330
2C
100
AcDbEntity
  8
0
  6
Continuous
 62
     7
100
AcDbLine
 10
0.4074435186
 20
9.177049935999999
 30
0.0
 11
0.4434501544
 21
9.177049935999999
 31
0.0
  0
LINE
  5
7B
330
2C
100
AcDbEntity
  8
0
  6
Continuous
 62
     7
100
AcDbLine
 10
0.4434501544
 20
9.177049935999999
 30
0.0
 11
0.4692735208
 21
9.2734258017
 31
0.0
  0
LINE
  5
7C
330
2C
100
AcDbEntity
  8
0
  6
Continuous
 62
     7
100
AcDbLine
 10
0.4692735208
 20
9.2734258017
 30
0.0
 11
0.4689845768
 21
9.272135586399999
 31
0.0
  0
LINE
  5
7D
330
2C
100
AcDbEntity
  8
0
  6
Continuous
 62
     7
100
AcDbLine
 10
0.4689845768
 20
9.272135586399999
 30
0.0
 11
0.4692183406
 21
9.2792518356
 31
0.0
  0
LINE
  5
7E
330
2C
100
AcDbEntity
  8
0
  6
Continuous
 62
     7
100
AcDbLine
 10
0.4692183406
 20
9.2792518356
 30
0.0
 11
0.4662807433
 21
9.285736019899999
 31
0.0
  0
LINE
  5
7F
330
2C
100
AcDbEntity
  8
0
  6
Continuous
 62
     7
100
AcDbLine
 10
0.4662807433
 20
9.285736019899999
 30
0.0
 11
0.4607777647
 21
9.290252776399999
 31
0.0
  0
LINE
  5
80
330
2C
100
AcDbEntity
  8
0
  6
Continuous
 62
     7
100
AcDbLine
 10
0.4607777647
 20
9.290252776399999
 30
0.0
 11
0.453844112
 21
9.291869056900001
 31
0.0
  0
LINE
  5
81
330
2C
100
AcDbEntity
  8
0
  6
Continuous
 62
     7
100
AcDbLine
 10
0.453844112
 20
9.291869056900001
 30
0.0
 11
0.4093567693
 21
9.291869056900001
 31
0.0
  0
LINE
  5
82
330
2C
100
AcDbEntity
  8
0
  6
Continuous
 62
     7
100
AcDbLine
 10
0.4093567693
 20
9.291869056900001
 30
0.0
 11
0.4224385081000001
 21
9.340695575999999
 31
0.0
  0
LINE
  5
83
330
2C
100
AcDbEntity
  8
0
  6
Continuous
 62
     7
100
AcDbLine
 10
0.4224385081000001
 20
9.340695575999999
 30
0.0
 11
0.3863746855
 21
9.340695575999999
 31
0.0
  0
LINE
  5
84
330
2C
100
AcDbEntity
  8
0
  6
Continuous
 62
     7
100
AcDbLine
 10
0.4942230324000001
 20
9.340695575999999
 30
0.0
 11
0.4503747775
 21
9.177049935999999
 31
0.0
  0
LINE
  5
85
330
2C
100
AcDbEntity
  8
0
  6
Continuous
 62
     7
100
AcDbLine
 10
0.4503747775
 20
9.177049935999999
 30
0.0
 11
0.4864386002
 21
9.177049935999999
 31
0.0
  0
LINE
  5
86
330
2C
100
AcDbEntity
  8
0
  6
Continuous
 62
     7
100
AcDbLine
 10
0.4864386002
 20
9.177049935999999
 30
0.0
 11
0.530286855
 21
9.340695575999999
 31
0.0
  0
LINE
  5
87
330
2C
100
AcDbEntity
  8
0
  6
Continuous
 62
     7
100
AcDbLine
 10
0.530286855
 20
9.340695575999999
 30
0.0
 11
0.4942230324000001
 21
9.340695575999999
 31
0.0
  0
LINE
  5
88
330
2C
100
AcDbEntity
  8
0
  6
Continuous
 62
     7
100
AcDbLine
 10
0.5361881347999999
 20
9.215842674199999
 30
0.0
 11
0.6049708520000001
 21
9.215842674199999
 31
0.0
  0
LINE
  5
89
330
2C
100
AcDbEntity
  8
0
  6
Continuous
 62
     7
100
AcDbLine
 10
0.6049708520000001
 20
9.215842674199999
 30
0.0
 11
0.6200561365000001
 21
9.272138596299999
 31
0.0
  0
LINE
  5
8A
330
2C
100
AcDbEntity
  8
0
  6
Continuous
 62
     7
100
AcDbLine
 10
0.6200561365000001
 20
9.272138596299999
 30
0.0
 11
0.6202878937
 21
9.279252838899999
 31
0.0
  0
LINE
  5
8B
330
2C
100
AcDbEntity
  8
0
  6
Continuous
 62
     7
100
AcDbLine
 10
0.6202878937
 20
9.279252838899999
 30
0.0
 11
0.6173502964000001
 21
9.285737023099999
 31
0.0
  0
LINE
  5
8C
330
2C
100
AcDbEntity
  8
0
  6
Continuous
 62
     7
100
AcDbLine
 10
0.6173502964000001
 20
9.285737023099999
 30
0.0
 11
0.6118483211
 21
9.290252776399999
 31
0.0
  0
LINE
  5
8D
330
2C
100
AcDbEntity
  8
0
  6
Continuous
 62
     7
100
AcDbLine
 10
0.6118483211
 20
9.290252776399999
 30
0.0
 11
0.6049156717000001
 21
9.291869056900001
 31
0.0
  0
LINE
  5
8E
330
2C
100
AcDbEntity
  8
0
  6
Continuous
 62
     7
100
AcDbLine
 10
0.6049156717000001
 20
9.291869056900001
 30
0.0
 11
0.5361560299
 21
9.291869056900001
 31
0.0
  0
LINE
  5
8F
330
2C
100
AcDbEntity
  8
0
  6
Continuous
 62
     7
100
AcDbLine
 10
0.5361560299
 20
9.291869056900001
 30
0.0
 11
0.5295333934000001
 21
9.2904002582
 31
0.0
  0
LINE
  5
90
330
2C
100
AcDbEntity
  8
0
  6
Continuous
 62
     7
100
AcDbLine
 10
0.5295333934000001
 20
9.2904002582
 30
0.0
 11
0.5241498049000001
 21
9.286270766900001
 31
0.0
  0
LINE
  5
91
330
2C
100
AcDbEntity
  8
0
  6
Continuous
 62
     7
100
AcDbLine
 10
0.5241498049000001
 20
9.286270766900001
 30
0.0
 11
0.5210175717000001
 21
9.2802521036
 31
0.0
  0
LINE
  5
92
330
2C
100
AcDbEntity
  8
0
  6
Continuous
 62
     7
100
AcDbLine
 10
0.5210175717000001
 20
9.2802521036
 30
0.0
 11
0.4986494939
 21
9.196779393299999
 31
0.0
  0
LINE
  5
93
330
2C
100
AcDbEntity
  8
0
  6
Continuous
 62
     7
100
AcDbLine
 10
0.4986494939
 20
9.196779393299999
 30
0.0
 11
0.4984177367
 21
9.189665150699999
 31
0.0
  0
LINE
  5
94
330
2C
100
AcDbEntity
  8
0
  6
Continuous
 62
     7
100
AcDbLine
 10
0.4984177367
 20
9.189665150699999
 30
0.0
 11
0.501355334
 21
9.1831809665
 31
0.0
  0
LINE
  5
95
330
2C
100
AcDbEntity
  8
0
  6
Continuous
 62
     7
100
AcDbLine
 10
0.501355334
 20
9.1831809665
 30
0.0
 11
0.5068573093
 21
9.178666216499999
 31
0.0
  0
LINE
  5
96
330
2C
100
AcDbEntity
  8
0
  6
Continuous
 62
     7
100
AcDbLine
 10
0.5068573093
 20
9.178666216499999
 30
0.0
 11
0.5137899587
 21
9.177049935999999
 31
0.0
  0
LINE
  5
97
330
2C
100
AcDbEntity
  8
0
  6
Continuous
 62
     7
100
AcDbLine
 10
0.5137899587
 20
9.177049935999999
 30
0.0
 11
0.594575891
 21
9.177049935999999
 31
0.0
  0
LINE
  5
98
330
2C
100
AcDbEntity
  8
0
  6
Continuous
 62
     7
100
AcDbLine
 10
0.594575891
 20
9.177049935999999
 30
0.0
 11
0.6029693128
 21
9.208373271199999
 31
0.0
  0
LINE
  5
99
330
2C
100
AcDbEntity
  8
0
  6
Continuous
 62
     7
100
AcDbLine
 10
0.6029693128
 20
9.208373271199999
 30
0.0
 11
0.5409858091
 21
9.208373271199999
 31
0.0
  0
LINE
  5
9A
330
2C
100
AcDbEntity
  8
0
  6
Continuous
 62
     7
100
AcDbLine
 10
0.5409858091
 20
9.208373271199999
 30
0.0
 11
0.5359453416
 21
9.2149407275
 31
0.0
  0
LINE
  5
9B
330
2C
100
AcDbEntity
  8
0
  6
Continuous
 62
     7
100
AcDbLine
 10
0.5359453416
 20
9.2149407275
 30
0.0
 11
0.5361881347999999
 21
9.215842674199999
 31
0.0
  0
LINE
  5
9C
330
2C
100
AcDbEntity
  8
0
  6
Continuous
 62
     7
100
AcDbLine
 10
0.5445815566
 20
9.2471670126
 30
0.0
 11
0.5809343232000001
 21
9.2471670126
 31
0.0
  0
LINE
  5
9D
330
2C
100
AcDbEntity
  8
0
  6
Continuous
 62
     7
100
AcDbLine
 10
0.5809343232000001
 20
9.2471670126
 30
0.0
 11
0.5827602888000002
 21
9.253977262100001
 31
0.0
  0
LINE
  5
9E
330
2C
100
AcDbEntity
  8
0
  6
Continuous
 62
     7
100
AcDbLine
 10
0.5827602888000002
 20
9.253977262100001
 30
0.0
 11
0.5818583421
 21
9.258503048099999
 31
0.0
  0
LINE
  5
9F
330
2C
100
AcDbEntity
  8
0
  6
Continuous
 62
     7
100
AcDbLine
 10
0.5818583421
 20
9.258503048099999
 30
0.0
 11
0.5777198213000001
 21
9.2605437151
 31
0.0
  0
LINE
  5
A0
330
2C
100
AcDbEntity
  8
0
  6
Continuous
 62
     7
100
AcDbLine
 10
0.5777198213000001
 20
9.2605437151
 30
0.0
 11
0.5521693464000001
 21
9.2605437151
 31
0.0
  0
LINE
  5
A1
330
2C
100
AcDbEntity
  8
0
  6
Continuous
 62
     7
100
AcDbLine
 10
0.5521693464000001
 20
9.2605437151
 30
0.0
 11
0.5489919657
 21
9.259466194799999
 31
0.0
  0
LINE
  5
A2
330
2C
100
AcDbEntity
  8
0
  6
Continuous
 62
     7
100
AcDbLine
 10
0.5489919657
 20
9.259466194799999
 30
0.0
 11
0.5471288789000001
 21
9.256677082599999
 31
0.0
  0
LINE
  5
A3
330
2C
100
AcDbEntity
  8
0
  6
Continuous
 62
     7
100
AcDbLine
 10
0.5471288789000001
 20
9.256677082599999
 30
0.0
 11
0.5445815566
 21
9.2471670126
 31
0.0
  0
LINE
  5
A4
330
2C
100
AcDbEntity
  8
0
  6
Continuous
 62
     7
100
AcDbLine
 10
0.6633586082000001
 20
9.177049935999999
 30
0.0
 11
0.6219272495000001
 21
9.177049935999999
 31
0.0
  0
LINE
  5
A5
330
2C
100
AcDbEntity
  8
0
  6
Continuous
 62
     7
100
AcDbLine
 10
0.6219272495000001
 20
9.177049935999999
 30
0.0
 11
0.6149946002000001
 21
9.178666216499999
 31
0.0
  0
LINE
  5
A6
330
2C
100
AcDbEntity
  8
0
  6
Continuous
 62
     7
100
AcDbLine
 10
0.6149946002000001
 20
9.178666216499999
 30
0.0
 11
0.6094926249000001
 21
9.1831809665
 31
0.0
  0
LINE
  5
A7
330
2C
100
AcDbEntity
  8
0
  6
Continuous
 62
     7
100
AcDbLine
 10
0.6094926249000001
 20
9.1831809665
 30
0.0
 11
0.606553021
 21
9.189665150699999
 31
0.0
  0
LINE
  5
A8
330
2C
100
AcDbEntity
  8
0
  6
Continuous
 62
     7
100
AcDbLine
 10
0.606553021
 20
9.189665150699999
 30
0.0
 11
0.6067867847999999
 21
9.196779393299999
 31
0.0
  0
LINE
  5
A9
330
2C
100
AcDbEntity
  8
0
  6
Continuous
 62
     7
100
AcDbLine
 10
0.6067867847999999
 20
9.196779393299999
 30
0.0
 11
0.6291528560000001
 21
9.2802521036
 31
0.0
  0
LINE
  5
AA
330
2C
100
AcDbEntity
  8
0
  6
Continuous
 62
     7
100
AcDbLine
 10
0.6291528560000001
 20
9.2802521036
 30
0.0
 11
0.6322860925000001
 21
9.286270766900001
 31
0.0
  0
LINE
  5
AB
330
2C
100
AcDbEntity
  8
0
  6
Continuous
 62
     7
100
AcDbLine
 10
0.6322860925000001
 20
9.286270766900001
 30
0.0
 11
0.6376686777
 21
9.2904002582
 31
0.0
  0
LINE
  5
AC
330
2C
100
AcDbEntity
  8
0
  6
Continuous
 62
     7
100
AcDbLine
 10
0.6376686777
 20
9.2904002582
 30
0.0
 11
0.6442933208000001
 21
9.291869056900001
 31
0.0
  0
LINE
  5
AD
330
2C
100
AcDbEntity
  8
0
  6
Continuous
 62
     7
100
AcDbLine
 10
0.6442933208000001
 20
9.291869056900001
 30
0.0
 11
0.7265550748000001
 21
9.291869056900001
 31
0.0
  0
LINE
  5
AE
330
2C
100
AcDbEntity
  8
0
  6
Continuous
 62
     7
100
AcDbLine
 10
0.7265550748000001
 20
9.291869056900001
 30
0.0
 11
0.6895822825
 21
9.1538852557
 31
0.0
  0
LINE
  5
AF
330
2C
100
AcDbEntity
  8
0
  6
Continuous
 62
     7
100
AcDbLine
 10
0.6895822825
 20
9.1538852557
 30
0.0
 11
0.6864500493000002
 21
9.147867595599999
 31
0.0
  0
LINE
  5
B0
330
2C
100
AcDbEntity
  8
0
  6
Continuous
 62
     7
100
AcDbLine
 10
0.6864500493000002
 20
9.147867595599999
 30
0.0
 11
0.6810674641
 21
9.143738104299998
 31
0.0
  0
LINE
  5
B1
330
2C
100
AcDbEntity
  8
0
  6
Continuous
 62
     7
100
AcDbLine
 10
0.6810674641
 20
9.143738104299998
 30
0.0
 11
0.6744418177
 21
9.142269305700001
 31
0.0
  0
LINE
  5
B2
330
2C
100
AcDbEntity
  8
0
  6
Continuous
 62
     7
100
AcDbLine
 10
0.6744418177
 20
9.142269305700001
 30
0.0
 11
0.5921800637
 21
9.142269305700001
 31
0.0
  0
LINE
  5
B3
330
2C
100
AcDbEntity
  8
0
  6
Continuous
 62
     7
100
AcDbLine
 10
0.5921800637
 20
9.142269305700001
 30
0.0
 11
0.6005754921000001
 21
9.1735936441
 31
0.0
  0
LINE
  5
B4
330
2C
100
AcDbEntity
  8
0
  6
Continuous
 62
     7
100
AcDbLine
 10
0.6005754921000001
 20
9.1735936441
 30
0.0
 11
0.6584295046000001
 21
9.1735936441
 31
0.0
  0
LINE
  5
B5
330
2C
100
AcDbEntity
  8
0
  6
Continuous
 62
     7
100
AcDbLine
 10
0.6584295046000001
 20
9.1735936441
 30
0.0
 11
0.6614313116
 21
9.174543748200001
 31
0.0
  0
LINE
  5
B6
330
2C
100
AcDbEntity
  8
0
  6
Continuous
 62
     7
100
AcDbLine
 10
0.6614313116
 20
9.174543748200001
 30
0.0
 11
0.6633415525000001
 21
9.177049935999999
 31
0.0
  0
LINE
  5
B7
330
2C
100
AcDbEntity
  8
0
  6
Continuous
 62
     7
100
AcDbLine
 10
0.6857306992000001
 20
9.2605437151
 30
0.0
 11
0.6603066372999999
 21
9.2605437151
 31
0.0
  0
LINE
  5
B8
330
2C
100
AcDbEntity
  8
0
  6
Continuous
 62
     7
100
AcDbLine
 10
0.6603066372999999
 20
9.2605437151
 30
0.0
 11
0.6571302597999999
 21
9.259466194799999
 31
0.0
  0
LINE
  5
B9
330
2C
100
AcDbEntity
  8
0
  6
Continuous
 62
     7
100
AcDbLine
 10
0.6571302597999999
 20
9.259466194799999
 30
0.0
 11
0.6552661698
 21
9.256677082599999
 31
0.0
  0
LINE
  5
BA
330
2C
100
AcDbEntity
  8
0
  6
Continuous
 62
     7
100
AcDbLine
 10
0.6552661698
 20
9.256677082599999
 30
0.0
 11
0.6440826325
 21
9.2149407275
 31
0.0
  0
LINE
  5
BB
330
2C
100
AcDbEntity
  8
0
  6
Continuous
 62
     7
100
AcDbLine
 10
0.6440826325
 20
9.2149407275
 30
0.0
 11
0.6449845792
 21
9.210414941499999
 31
0.0
  0
LINE
  5
BC
330
2C
100
AcDbEntity
  8
0
  6
Continuous
 62
     7
100
AcDbLine
 10
0.6449845792
 20
9.210414941499999
 30
0.0
 11
0.6491230999999999
 21
9.208373271199999
 31
0.0
  0
LINE
  5
BD
330
2C
100
AcDbEntity
  8
0
  6
Continuous
 62
     7
100
AcDbLine
 10
0.6491230999999999
 20
9.208373271199999
 30
0.0
 11
0.6717520300000001
 21
9.208373271199999
 31
0.0
  0
LINE
  5
BE
330
2C
100
AcDbEntity
  8
0
  6
Continuous
 62
     7
100
AcDbLine
 10
0.6717520300000001
 20
9.208373271199999
 30
0.0
 11
0.6857306992000001
 21
9.2605437151
 31
0.0
  0
LINE
  5
BF
330
2C
100
AcDbEntity
  8
0
  6
Continuous
 62
     7
100
AcDbLine
 10
0.7455380934
 20
9.215842674199999
 30
0.0
 11
0.8212444304999999
 21
9.215842674199999
 31
0.0
  0
LINE
  5
C0
330
2C
100
AcDbEntity
  8
0
  6
Continuous
 62
     7
100
AcDbLine
 10
0.8212444304999999
 20
9.215842674199999
 30
0.0
 11
0.8363287117
 21
9.272138596299999
 31
0.0
  0
LINE
  5
C1
330
2C
100
AcDbEntity
  8
0
  6
Continuous
 62
     7
100
AcDbLine
 10
0.8363287117
 20
9.272138596299999
 30
0.0
 11
0.8365624754999998
 21
9.279252838899999
 31
0.0
  0
LINE
  5
C2
330
2C
100
AcDbEntity
  8
0
  6
Continuous
 62
     7
100
AcDbLine
 10
0.8365624754999998
 20
9.279252838899999
 30
0.0
 11
0.8336248781
 21
9.285737023099999
 31
0.0
  0
LINE
  5
C3
330
2C
100
AcDbEntity
  8
0
  6
Continuous
 62
     7
100
AcDbLine
 10
0.8336248781
 20
9.285737023099999
 30
0.0
 11
0.8281218995999999
 21
9.290252776399999
 31
0.0
  0
LINE
  5
C4
330
2C
100
AcDbEntity
  8
0
  6
Continuous
 62
     7
100
AcDbLine
 10
0.8281218995999999
 20
9.290252776399999
 30
0.0
 11
0.8211902535
 21
9.291869056900001
 31
0.0
  0
LINE
  5
C5
330
2C
100
AcDbEntity
  8
0
  6
Continuous
 62
     7
100
AcDbLine
 10
0.8211902535
 20
9.291869056900001
 30
0.0
 11
0.7455059885999999
 21
9.291869056900001
 31
0.0
  0
LINE
  5
C6
330
2C
100
AcDbEntity
  8
0
  6
Continuous
 62
     7
100
AcDbLine
 10
0.7455059885999999
 20
9.291869056900001
 30
0.0
 11
0.7388813455
 21
9.2904002582
 31
0.0
  0
LINE
  5
C7
330
2C
100
AcDbEntity
  8
0
  6
Continuous
 62
     7
100
AcDbLine
 10
0.7388813455
 20
9.2904002582
 30
0.0
 11
0.7334997634999999
 21
9.286270766900001
 31
0.0
  0
LINE
  5
C8
330
2C
100
AcDbEntity
  8
0
  6
Continuous
 62
     7
100
AcDbLine
 10
0.7334997634999999
 20
9.286270766900001
 30
0.0
 11
0.7303655238
 21
9.2802521036
 31
0.0
  0
LINE
  5
C9
330
2C
100
AcDbEntity
  8
0
  6
Continuous
 62
     7
100
AcDbLine
 10
0.7303655238
 20
9.2802521036
 30
0.0
 11
0.7079994525
 21
9.196779393299999
 31
0.0
  0
LINE
  5
CA
330
2C
100
AcDbEntity
  8
0
  6
Continuous
 62
     7
100
AcDbLine
 10
0.7079994525
 20
9.196779393299999
 30
0.0
 11
0.7077676953000001
 21
9.189665150699999
 31
0.0
  0
LINE
  5
CB
330
2C
100
AcDbEntity
  8
0
  6
Continuous
 62
     7
100
AcDbLine
 10
0.7077676953000001
 20
9.189665150699999
 30
0.0
 11
0.7107052926000001
 21
9.1831809665
 31
0.0
  0
LINE
  5
CC
330
2C
100
AcDbEntity
  8
0
  6
Continuous
 62
     7
100
AcDbLine
 10
0.7107052926000001
 20
9.1831809665
 30
0.0
 11
0.7162062645999999
 21
9.178666216499999
 31
0.0
  0
LINE
  5
CD
330
2C
100
AcDbEntity
  8
0
  6
Continuous
 62
     7
100
AcDbLine
 10
0.7162062645999999
 20
9.178666216499999
 30
0.0
 11
0.7231399173000001
 21
9.177049935999999
 31
0.0
  0
LINE
  5
CE
330
2C
100
AcDbEntity
  8
0
  6
Continuous
 62
     7
100
AcDbLine
 10
0.7231399173000001
 20
9.177049935999999
 30
0.0
 11
0.8108494695
 21
9.177049935999999
 31
0.0
  0
LINE
  5
CF
330
2C
100
AcDbEntity
  8
0
  6
Continuous
 62
     7
100
AcDbLine
 10
0.8108494695
 20
9.177049935999999
 30
0.0
 11
0.8192448979000001
 21
9.208373271199999
 31
0.0
  0
LINE
  5
D0
330
2C
100
AcDbEntity
  8
0
  6
Continuous
 62
     7
100
AcDbLine
 10
0.8192448979000001
 20
9.208373271199999
 30
0.0
 11
0.7503357677000001
 21
9.208373271199999
 31
0.0
  0
LINE
  5
D1
330
2C
100
AcDbEntity
  8
0
  6
Continuous
 62
     7
100
AcDbLine
 10
0.7503357677000001
 20
9.208373271199999
 30
0.0
 11
0.7461962437000001
 21
9.210414941499999
 31
0.0
  0
LINE
  5
D2
330
2C
100
AcDbEntity
  8
0
  6
Continuous
 62
     7
100
AcDbLine
 10
0.7461962437000001
 20
9.210414941499999
 30
0.0
 11
0.7452953002
 21
9.2149407275
 31
0.0
  0
LINE
  5
D3
330
2C
100
AcDbEntity
  8
0
  6
Continuous
 62
     7
100
AcDbLine
 10
0.7539315152000001
 20
9.2471670126
 30
0.0
 11
0.797208905
 21
9.2471670126
 31
0.0
  0
LINE
  5
D4
330
2C
100
AcDbEntity
  8
0
  6
Continuous
 62
     7
100
AcDbLine
 10
0.797208905
 20
9.2471670126
 30
0.0
 11
0.7990328640000001
 21
9.253977262100001
 31
0.0
  0
LINE
  5
D5
330
2C
100
AcDbEntity
  8
0
  6
Continuous
 62
     7
100
AcDbLine
 10
0.7990328640000001
 20
9.253977262100001
 30
0.0
 11
0.7981339271
 21
9.258503048099999
 31
0.0
  0
LINE
  5
D6
330
2C
100
AcDbEntity
  8
0
  6
Continuous
 62
     7
100
AcDbLine
 10
0.7981339271
 20
9.258503048099999
 30
0.0
 11
0.7939944031000001
 21
9.2605437151
 31
0.0
  0
LINE
  5
D7
330
2C
100
AcDbEntity
  8
0
  6
Continuous
 62
     7
100
AcDbLine
 10
0.7939944031000001
 20
9.2605437151
 30
0.0
 11
0.7615183017
 21
9.2605437151
 31
0.0
  0
LINE
  5
D8
330
2C
100
AcDbEntity
  8
0
  6
Continuous
 62
     7
100
AcDbLine
 10
0.7615183017
 20
9.2605437151
 30
0.0
 11
0.7583419243
 21
9.259466194799999
 31
0.0
  0
LINE
  5
D9
330
2C
100
AcDbEntity
  8
0
  6
Continuous
 62
     7
100
AcDbLine
 10
0.7583419243
 20
9.259466194799999
 30
0.0
 11
0.7564788375
 21
9.256677082599999
 31
0.0
  0
LINE
  5
DA
330
2C
100
AcDbEntity
  8
0
  6
Continuous
 62
     7
100
AcDbLine
 10
0.7564788375
 20
9.256677082599999
 30
0.0
 11
0.7539315152000001
 21
9.2471670126
 31
0.0
  0
LINE
  5
DB
330
2C
100
AcDbEntity
  8
0
  6
Continuous
 62
     7
100
AcDbLine
 10
0.8616233508
 20
9.340695575999999
 30
0.0
 11
0.8177750959999999
 21
9.177049935999999
 31
0.0
  0
LINE
  5
DC
330
2C
100
AcDbEntity
  8
0
  6
Continuous
 62
     7
100
AcDbLine
 10
0.8177750959999999
 20
9.177049935999999
 30
0.0
 11
0.8538409251999999
 21
9.177049935999999
 31
0.0
  0
LINE
  5
DD
330
2C
100
AcDbEntity
  8
0
  6
Continuous
 62
     7
100
AcDbLine
 10
0.8538409251999999
 20
9.177049935999999
 30
0.0
 11
0.89768918
 21
9.340695575999999
 31
0.0
  0
LINE
  5
DE
330
2C
100
AcDbEntity
  8
0
  6
Continuous
 62
     7
100
AcDbLine
 10
0.89768918
 20
9.340695575999999
 30
0.0
 11
0.8616233508
 21
9.340695575999999
 31
0.0
  0
LINE
  5
DF
330
2C
100
AcDbEntity
  8
0
  6
Continuous
 62
     7
100
AcDbLine
 10
0.0571490861
 20
9.918361845599999
 30
0.0
 11
0.9421474276999999
 21
9.918357832499999
 31
0.0
  0
LINE
  5
E0
330
2C
100
AcDbEntity
  8
0
  6
Continuous
 62
     7
100
AcDbLine
 10
0.0428082337
 20
9.9083280647
 30
0.0
 11
0.9564822603999999
 21
9.9083250549
 31
0.0
  0
LINE
  5
E1
330
2C
100
AcDbEntity
  8
0
  6
Continuous
 62
     7
100
AcDbLine
 10
0.0353649159
 20
9.898295286999999
 30
0.0
 11
0.9639245748999998
 21
9.898291273899999
 31
0.0
  0
LINE
  5
E2
330
2C
100
AcDbEntity
  8
0
  6
Continuous
 62
     7
100
AcDbLine
 10
0.0312083361
 20
9.888262509299998
 30
0.0
 11
0.9680801514
 21
9.8882584962
 31
0.0
  0
LINE
  5
E3
330
2C
100
AcDbEntity
  8
0
  6
Continuous
 62
     7
100
AcDbLine
 10
0.0296071048
 20
9.878229731699999
 30
0.0
 11
0.9696803795000001
 21
9.878225718599999
 31
0.0
  0
LINE
  5
E4
330
2C
100
AcDbEntity
  8
0
  6
Continuous
 62
     7
100
AcDbLine
 10
0.0291355642
 20
9.8681959507
 30
0.0
 11
0.9701509166999999
 21
9.8681929409
 31
0.0
  0
LINE
  5
E5
330
2C
100
AcDbEntity
  8
0
  6
Continuous
 62
     7
100
AcDbLine
 10
0.0291355642
 20
9.858163172999999
 30
0.0
 11
0.9701509166999999
 21
9.858159159899999
 31
0.0
  0
LINE
  5
E6
330
2C
100
AcDbEntity
  8
0
  6
Continuous
 62
     7
100
AcDbLine
 10
0.0291365675
 20
9.8481303954
 30
0.0
 11
0.9701509166999999
 21
9.8481263823
 31
0.0
  0
LINE
  5
E7
330
2C
100
AcDbEntity
  8
0
  6
Continuous
 62
     7
100
AcDbLine
 10
0.0291365675
 20
9.838097617699999
 30
0.0
 11
0.9701489102
 21
9.8380936046
 31
0.0
  0
LINE
  5
E8
330
2C
100
AcDbEntity
  8
0
  6
Continuous
 62
     7
100
AcDbLine
 10
0.0291365675
 20
9.8280638367
 30
0.0
 11
0.9701489102
 21
9.828060826899999
 31
0.0
  0
LINE
  5
E9
330
2C
100
AcDbEntity
  8
0
  6
Continuous
 62
     7
100
AcDbLine
 10
0.0291365675
 20
9.818031059099999
 30
0.0
 11
0.9701489102
 21
9.818027046
 31
0.0
  0
LINE
  5
EA
330
2C
100
AcDbEntity
  8
0
  6
Continuous
 62
     7
100
AcDbLine
 10
0.0291365675
 20
9.807998281399999
 30
0.0
 11
0.9701489102
 21
9.807994268299999
 31
0.0
  0
LINE
  5
EB
330
2C
100
AcDbEntity
  8
0
  6
Continuous
 62
     7
100
AcDbLine
 10
0.0291365675
 20
9.7979655037
 30
0.0
 11
0.9701489102
 21
9.797961490599998
 31
0.0
  0
LINE
  5
EC
330
2C
100
AcDbEntity
  8
0
  6
Continuous
 62
     7
100
AcDbLine
 10
0.0291365675
 20
9.787932726000001
 30
0.0
 11
0.9701489102
 21
9.787928712899999
 31
0.0
  0
LINE
  5
ED
330
2C
100
AcDbEntity
  8
0
  6
Continuous
 62
     7
100
AcDbLine
 10
0.0291355642
 20
9.7778989451
 30
0.0
 11
0.9701489102
 21
9.7778959353
 31
0.0
  0
LINE
  5
EE
330
2C
100
AcDbEntity
  8
0
  6
Continuous
 62
     7
100
AcDbLine
 10
0.0291355642
 20
9.767866167399999
 30
0.0
 11
0.9701489102
 21
9.767862154299999
 31
0.0
  0
LINE
  5
EF
330
2C
100
AcDbEntity
  8
0
  6
Continuous
 62
     7
100
AcDbLine
 10
0.0291355642
 20
9.7578333897
 30
0.0
 11
0.9701489102
 21
9.7578293766
 31
0.0
  0
LINE
  5
F0
330
2C
100
AcDbEntity
  8
0
  6
Continuous
 62
     7
100
AcDbLine
 10
0.0291355642
 20
9.7478006121
 30
0.0
 11
0.9701489102
 21
9.747796598899999
 31
0.0
  0
LINE
  5
F1
330
2C
100
AcDbEntity
  8
0
  6
Continuous
 62
     7
100
AcDbLine
 10
0.0291355642
 20
9.7377668311
 30
0.0
 11
0.9701489102
 21
9.737763821299999
 31
0.0
  0
LINE
  5
F2
330
2C
100
AcDbEntity
  8
0
  6
Continuous
 62
     7
100
AcDbLine
 10
0.0291365675
 20
9.7277340534
 30
0.0
 11
0.9701509166999999
 21
9.727730040299999
 31
0.0
  0
LINE
  5
F3
330
2C
100
AcDbEntity
  8
0
  6
Continuous
 62
     7
100
AcDbLine
 10
0.0291365675
 20
9.717701275799999
 30
0.0
 11
0.9701509166999999
 21
9.717697262599999
 31
0.0
  0
LINE
  5
F4
330
2C
100
AcDbEntity
  8
0
  6
Continuous
 62
     7
100
AcDbLine
 10
0.0291365675
 20
9.707668498099998
 30
0.0
 11
0.9701509166999999
 21
9.707664485
 31
0.0
  0
LINE
  5
F5
330
2C
100
AcDbEntity
  8
0
  6
Continuous
 62
     7
100
AcDbLine
 10
0.0291365675
 20
9.697635720399999
 30
0.0
 11
0.9701509166999999
 21
9.697631707299999
 31
0.0
  0
LINE
  5
F6
330
2C
100
AcDbEntity
  8
0
  6
Continuous
 62
     7
100
AcDbLine
 10
0.0291365675
 20
9.6876019395
 30
0.0
 11
0.9701509166999999
 21
9.6875979263
 31
0.0
  0
LINE
  5
F7
330
2C
100
AcDbEntity
  8
0
  6
Continuous
 62
     7
100
AcDbLine
 10
0.0291365675
 20
9.677569161799999
 30
0.0
 11
0.9701509166999999
 21
9.677565148699999
 31
0.0
  0
LINE
  5
F8
330
2C
100
AcDbEntity
  8
0
  6
Continuous
 62
     7
100
AcDbLine
 10
0.0291365675
 20
9.667536384099999
 30
0.0
 11
0.9701509166999999
 21
9.667532371
 31
0.0
  0
LINE
  5
F9
330
2C
100
AcDbEntity
  8
0
  6
Continuous
 62
     7
100
AcDbLine
 10
0.0291365675
 20
9.6575036064
 30
0.0
 11
0.9701509166999999
 21
9.6574995933
 31
0.0
  0
LINE
  5
FA
330
2C
100
AcDbEntity
  8
0
  6
Continuous
 62
     7
100
AcDbLine
 10
0.0291355642
 20
9.647469825499999
 30
0.0
 11
0.9701509166999999
 21
9.647466815599999
 31
0.0
  0
LINE
  5
FB
330
2C
100
AcDbEntity
  8
0
  6
Continuous
 62
     7
100
AcDbLine
 10
0.0291355642
 20
9.637437047799998
 30
0.0
 11
0.9701509166999999
 21
9.6374330347
 31
0.0
  0
LINE
  5
FC
330
2C
100
AcDbEntity
  8
0
  6
Continuous
 62
     7
100
AcDbLine
 10
0.0291355642
 20
9.627404270099999
 30
0.0
 11
0.9701509166999999
 21
9.627400256999999
 31
0.0
  0
LINE
  5
FD
330
2C
100
AcDbEntity
  8
0
  6
Continuous
 62
     7
100
AcDbLine
 10
0.0291355642
 20
9.6173714925
 30
0.0
 11
0.9701509166999999
 21
9.6173674793
 31
0.0
  0
LINE
  5
FE
330
2C
100
AcDbEntity
  8
0
  6
Continuous
 62
     7
100
AcDbLine
 10
0.0291355642
 20
9.607337711499999
 30
0.0
 11
0.9701509166999999
 21
9.607334701699999
 31
0.0
  0
LINE
  5
FF
330
2C
100
AcDbEntity
  8
0
  6
Continuous
 62
     7
100
AcDbLine
 10
0.0291365675
 20
9.5973049338
 30
0.0
 11
0.9701509166999999
 21
9.5973009207
 31
0.0
  0
LINE
  5
100
330
2C
100
AcDbEntity
  8
0
  6
Continuous
 62
     7
100
AcDbLine
 10
0.0291365675
 20
9.587272156199999
 30
0.0
 11
0.9701509166999999
 21
9.587268142999999
 31
0.0
  0
LINE
  5
101
330
2C
100
AcDbEntity
  8
0
  6
Continuous
 62
     7
100
AcDbLine
 10
0.0291365675
 20
9.577239378499999
 30
0.0
 11
0.9701489102
 21
9.577235365399999
 31
0.0
  0
LINE
  5
102
330
2C
100
AcDbEntity
  8
0
  6
Continuous
 62
     7
100
AcDbLine
 10
0.0291365675
 20
9.5672066008
 30
0.0
 11
0.9701489102
 21
9.5672025877
 31
0.0
  0
LINE
  5
103
330
2C
100
AcDbEntity
  8
0
  6
Continuous
 62
     7
100
AcDbLine
 10
0.0291365675
 20
9.557172819899999
 30
0.0
 11
0.9701489102
 21
9.557169809999999
 31
0.0
  0
LINE
  5
104
330
2C
100
AcDbEntity
  8
0
  6
Continuous
 62
     7
100
AcDbLine
 10
0.0291365675
 20
9.5471400422
 30
0.0
 11
0.9701489102
 21
9.547136029099998
 31
0.0
  0
LINE
  5
105
330
2C
100
AcDbEntity
  8
0
  6
Continuous
 62
     7
100
AcDbLine
 10
0.0291365675
 20
9.537107264500001
 30
0.0
 11
0.9701489102
 21
9.537103251399999
 31
0.0
  0
LINE
  5
106
330
2C
100
AcDbEntity
  8
0
  6
Continuous
 62
     7
100
AcDbLine
 10
0.0291365675
 20
9.5270744868
 30
0.0
 11
0.9701489102
 21
9.5270704737
 31
0.0
  0
LINE
  5
107
330
2C
100
AcDbEntity
  8
0
  6
Continuous
 62
     7
100
AcDbLine
 10
0.0291355642
 20
9.517040705899999
 30
0.0
 11
0.9701489102
 21
9.517037696
 31
0.0
  0
LINE
  5
108
330
2C
100
AcDbEntity
  8
0
  6
Continuous
 62
     7
100
AcDbLine
 10
0.0291355642
 20
9.5070079282
 30
0.0
 11
0.9701489102
 21
9.5070039151
 31
0.0
  0
LINE
  5
109
330
2C
100
AcDbEntity
  8
0
  6
Continuous
 62
     7
100
AcDbLine
 10
0.0291355642
 20
9.496975150499999
 30
0.0
 11
0.9701489102
 21
9.496971137399999
 31
0.0
  0
LINE
  5
10A
330
2C
100
AcDbEntity
  8
0
  6
Continuous
 62
     7
100
AcDbLine
 10
0.0291355642
 20
9.486942372799999
 30
0.0
 11
0.9701489102
 21
9.486938359699999
 31
0.0
  0
LINE
  5
10B
330
2C
100
AcDbEntity
  8
0
  6
Continuous
 62
     7
100
AcDbLine
 10
0.0291365675
 20
9.4769085919
 30
0.0
 11
0.9701489102
 21
9.4769055821
 31
0.0
  0
LINE
  5
10C
330
2C
100
AcDbEntity
  8
0
  6
Continuous
 62
     7
100
AcDbLine
 10
0.0291365675
 20
9.466875814199999
 30
0.0
 11
0.9701489102
 21
9.466871801099999
 31
0.0
  0
LINE
  5
10D
330
2C
100
AcDbEntity
  8
0
  6
Continuous
 62
     7
100
AcDbLine
 10
0.0291365675
 20
9.4568430365
 30
0.0
 11
0.9701489102
 21
9.4568390234
 31
0.0
  0
LINE
  5
10E
330
2C
100
AcDbEntity
  8
0
  6
Continuous
 62
     7
100
AcDbLine
 10
0.0291365675
 20
9.446810258899999
 30
0.0
 11
0.9701489102
 21
9.446806245800001
 31
0.0
  0
LINE
  5
10F
330
2C
100
AcDbEntity
  8
0
  6
Continuous
 62
     7
100
AcDbLine
 10
0.0291365675
 20
9.4367774812
 30
0.0
 11
0.9701489102
 21
9.4367734681
 31
0.0
  0
LINE
  5
110
330
2C
100
AcDbEntity
  8
0
  6
Continuous
 62
     7
100
AcDbLine
 10
0.0291365675
 20
9.426743700199999
 30
0.0
 11
0.9701489102
 21
9.426740690399999
 31
0.0
  0
LINE
  5
111
330
2C
100
AcDbEntity
  8
0
  6
Continuous
 62
     7
100
AcDbLine
 10
0.0291365675
 20
9.4167109226
 30
0.0
 11
0.9701489102
 21
9.4167069095
 31
0.0
  0
LINE
  5
112
330
2C
100
AcDbEntity
  8
0
  6
Continuous
 62
     7
100
AcDbLine
 10
0.0291365675
 20
9.4066781449
 30
0.0
 11
0.9701489102
 21
9.406674131799999
 31
0.0
  0
LINE
  5
113
330
2C
100
AcDbEntity
  8
0
  6
Continuous
 62
     7
100
AcDbLine
 10
0.0291365675
 20
9.396645367199999
 30
0.0
 11
0.9701489102
 21
9.396641354099999
 31
0.0
  0
LINE
  5
114
330
2C
100
AcDbEntity
  8
0
  6
Continuous
 62
     7
100
AcDbLine
 10
0.0291355642
 20
9.3866115863
 30
0.0
 11
0.9701489102
 21
9.3866085764
 31
0.0
  0
LINE
  5
115
330
2C
100
AcDbEntity
  8
0
  6
Continuous
 62
     7
100
AcDbLine
 10
0.0291355642
 20
9.376578808599999
 30
0.0
 11
0.9701489102
 21
9.376574795499999
 31
0.0
  0
LINE
  5
116
330
2C
100
AcDbEntity
  8
0
  6
Continuous
 62
     7
100
AcDbLine
 10
0.0291355642
 20
9.3665460309
 30
0.0
 11
0.9701489102
 21
9.3665420178
 31
0.0
  0
LINE
  5
117
330
2C
100
AcDbEntity
  8
0
  6
Continuous
 62
     7
100
AcDbLine
 10
0.0291355642
 20
9.356513253200001
 30
0.0
 11
0.9701489102
 21
9.356509240099999
 31
0.0
  0
LINE
  5
118
330
2C
100
AcDbEntity
  8
0
  6
Continuous
 62
     7
100
AcDbLine
 10
0.0291365675
 20
9.346480475599999
 30
0.0
 11
0.9701509166999999
 21
9.3464764625
 31
0.0
  0
LINE
  5
119
330
2C
100
AcDbEntity
  8
0
  6
Continuous
 62
     7
100
AcDbLine
 10
0.0291365675
 20
9.336446694600001
 30
0.0
 11
0.1455719688
 21
9.336445691299999
 31
0.0
  0
LINE
  5
11A
330
2C
100
AcDbEntity
  8
0
  6
Continuous
 62
     7
100
AcDbLine
 10
0.2840273106
 20
9.336445691299999
 30
0.0
 11
0.385238975
 21
9.3364446881
 31
0.0
  0
LINE
  5
11B
330
2C
100
AcDbEntity
  8
0
  6
Continuous
 62
     7
100
AcDbLine
 10
0.4213038009
 20
9.3364446881
 30
0.0
 11
0.4930883252
 21
9.3364446881
 31
0.0
  0
LINE
  5
11C
330
2C
100
AcDbEntity
  8
0
  6
Continuous
 62
     7
100
AcDbLine
 10
0.5291541544000001
 20
9.3364446881
 30
0.0
 11
0.8604886436999999
 21
9.3364436848
 31
0.0
  0
LINE
  5
11D
330
2C
100
AcDbEntity
  8
0
  6
Continuous
 62
     7
100
AcDbLine
 10
0.8965534695999998
 20
9.336442681499999
 30
0.0
 11
0.9701509166999999
 21
9.336442681499999
 31
0.0
  0
LINE
  5
11E
330
2C
100
AcDbEntity
  8
0
  6
Continuous
 62
     7
100
AcDbLine
 10
0.0291365675
 20
9.326413916899999
 30
0.0
 11
0.1401081181
 21
9.3264129137
 31
0.0
  0
LINE
  5
11F
330
2C
100
AcDbEntity
  8
0
  6
Continuous
 62
     7
100
AcDbLine
 10
0.2813385261
 20
9.3264129137
 30
0.0
 11
0.3825511939
 21
9.326411910399999
 31
0.0
  0
LINE
  5
120
330
2C
100
AcDbEntity
  8
0
  6
Continuous
 62
     7
100
AcDbLine
 10
0.4186150165
 20
9.326411910399999
 30
0.0
 11
0.4903995408
 21
9.326411910399999
 31
0.0
  0
LINE
  5
121
330
2C
100
AcDbEntity
  8
0
  6
Continuous
 62
     7
100
AcDbLine
 10
0.5264633634
 20
9.326411910399999
 30
0.0
 11
0.8577978526999999
 21
9.326410907099999
 31
0.0
  0
LINE
  5
122
330
2C
100
AcDbEntity
  8
0
  6
Continuous
 62
     7
100
AcDbLine
 10
0.8938636818999999
 20
9.3264099038
 30
0.0
 11
0.9701489102
 21
9.3264099038
 31
0.0
  0
LINE
  5
123
330
2C
100
AcDbEntity
  8
0
  6
Continuous
 62
     7
100
AcDbLine
 10
0.0291365675
 20
9.316381139299998
 30
0.0
 11
0.1421497884
 21
9.316380135999999
 31
0.0
  0
LINE
  5
124
330
2C
100
AcDbEntity
  8
0
  6
Continuous
 62
     7
100
AcDbLine
 10
0.278650745
 20
9.316380135999999
 30
0.0
 11
0.3798624095
 21
9.316379132699999
 31
0.0
  0
LINE
  5
125
330
2C
100
AcDbEntity
  8
0
  6
Continuous
 62
     7
100
AcDbLine
 10
0.4159272354
 20
9.316379132699999
 30
0.0
 11
0.4877117596
 21
9.316379132699999
 31
0.0
  0
LINE
  5
126
330
2C
100
AcDbEntity
  8
0
  6
Continuous
 62
     7
100
AcDbLine
 10
0.523774579
 20
9.316379132699999
 30
0.0
 11
0.8551110748000001
 21
9.3163781294
 31
0.0
  0
LINE
  5
127
330
2C
100
AcDbEntity
  8
0
  6
Continuous
 62
     7
100
AcDbLine
 10
0.8911769040000001
 20
9.3163771262
 30
0.0
 11
0.9701489102
 21
9.3163771262
 31
0.0
  0
LINE
  5
128
330
2C
100
AcDbEntity
  8
0
  6
Continuous
 62
     7
100
AcDbLine
 10
0.0291365675
 20
9.306348361599999
 30
0.0
 11
0.146013411
 21
9.3063473583
 31
0.0
  0
LINE
  5
129
330
2C
100
AcDbEntity
  8
0
  6
Continuous
 62
     7
100
AcDbLine
 10
0.2759619606
 20
9.3063473583
 30
0.0
 11
0.3771736251
 21
9.306346355
 31
0.0
  0
LINE
  5
12A
330
2C
100
AcDbEntity
  8
0
  6
Continuous
 62
     7
100
AcDbLine
 10
0.4132394542000001
 20
9.306346355
 30
0.0
 11
0.4850229752000001
 21
9.306346355
 31
0.0
  0
LINE
  5
12B
330
2C
100
AcDbEntity
  8
0
  6
Continuous
 62
     7
100
AcDbLine
 10
0.5210867979
 20
9.306346355
 30
0.0
 11
0.8524222904
 21
9.306345351799999
 31
0.0
  0
LINE
  5
12C
330
2C
100
AcDbEntity
  8
0
  6
Continuous
 62
     7
100
AcDbLine
 10
0.8884881196
 20
9.306344348499999
 30
0.0
 11
0.9701489102
 21
9.306344348499999
 31
0.0
  0
LINE
  5
12D
330
2C
100
AcDbEntity
  8
0
  6
Continuous
 62
     7
100
AcDbLine
 10
0.0291365675
 20
9.296314580599998
 30
0.0
 11
0.1498770337
 21
9.296313577399999
 31
0.0
  0
LINE
  5
12E
330
2C
100
AcDbEntity
  8
0
  6
Continuous
 62
     7
100
AcDbLine
 10
0.1834687799
 20
9.296313577399999
 30
0.0
 11
0.3744858439
 21
9.296312574099999
 31
0.0
  0
LINE
  5
12F
330
2C
100
AcDbEntity
  8
0
  6
Continuous
 62
     7
100
AcDbLine
 10
0.4105506698000001
 20
9.296312574099999
 30
0.0
 11
0.4823341908
 21
9.296312574099999
 31
0.0
  0
LINE
  5
130
330
2C
100
AcDbEntity
  8
0
  6
Continuous
 62
     7
100
AcDbLine
 10
0.51840002
 20
9.296312574099999
 30
0.0
 11
0.8497335059999999
 21
9.296312574099999
 31
0.0
  0
LINE
  5
131
330
2C
100
AcDbEntity
  8
0
  6
Continuous
 62
     7
100
AcDbLine
 10
0.8857993351999999
 20
9.2963115708
 30
0.0
 11
0.9701489102
 21
9.2963115708
 31
0.0
  0
LINE
  5
132
330
2C
100
AcDbEntity
  8
0
  6
Continuous
 62
     7
100
AcDbLine
 10
0.0291365675
 20
9.286281802999999
 30
0.0
 11
0.1537406564
 21
9.2862807997
 31
0.0
  0
LINE
  5
133
330
2C
100
AcDbEntity
  8
0
  6
Continuous
 62
     7
100
AcDbLine
 10
0.1873324026
 20
9.2862807997
 30
0.0
 11
0.2688296589
 21
9.2862807997
 31
0.0
  0
LINE
  5
134
330
2C
100
AcDbEntity
  8
0
  6
Continuous
 62
     7
100
AcDbLine
 10
0.3648734396
 20
9.2862797964
 30
0.0
 11
0.3717970595
 21
9.2862797964
 31
0.0
  0
LINE
  5
135
330
2C
100
AcDbEntity
  8
0
  6
Continuous
 62
     7
100
AcDbLine
 10
0.4656155701
 20
9.2862797964
 30
0.0
 11
0.4796454064000001
 21
9.2862797964
 31
0.0
  0
LINE
  5
136
330
2C
100
AcDbEntity
  8
0
  6
Continuous
 62
     7
100
AcDbLine
 10
0.5157112356
 20
9.2862797964
 30
0.0
 11
0.5241688672000001
 21
9.2862797964
 31
0.0
  0
LINE
  5
137
330
2C
100
AcDbEntity
  8
0
  6
Continuous
 62
     7
100
AcDbLine
 10
0.6166881329999999
 20
9.286278793099999
 30
0.0
 11
0.6323051548
 21
9.286278793099999
 31
0.0
  0
LINE
  5
138
330
2C
100
AcDbEntity
  8
0
  6
Continuous
 62
     7
100
AcDbLine
 10
0.7250611942000001
 20
9.286278793099999
 30
0.0
 11
0.7335168192000001
 21
9.286278793099999
 31
0.0
  0
LINE
  5
139
330
2C
100
AcDbEntity
  8
0
  6
Continuous
 62
     7
100
AcDbLine
 10
0.8329627148
 20
9.286278793099999
 30
0.0
 11
0.8470457248
 21
9.286278793099999
 31
0.0
  0
LINE
  5
13A
330
2C
100
AcDbEntity
  8
0
  6
Continuous
 62
     7
100
AcDbLine
 10
0.8831105508
 20
9.286277789899999
 30
0.0
 11
0.9701489102
 21
9.286277789899999
 31
0.0
  0
LINE
  5
13B
330
2C
100
AcDbEntity
  8
0
  6
Continuous
 62
     7
100
AcDbLine
 10
0.0291365675
 20
9.2762490253
 30
0.0
 11
0.1576042791
 21
9.276248022
 31
0.0
  0
LINE
  5
13C
330
2C
100
AcDbEntity
  8
0
  6
Continuous
 62
     7
100
AcDbLine
 10
0.1911970286
 20
9.276248022
 30
0.0
 11
0.2609729907
 21
9.276248022
 31
0.0
  0
LINE
  5
13D
330
2C
100
AcDbEntity
  8
0
  6
Continuous
 62
     7
100
AcDbLine
 10
0.3621846552
 20
9.276247018699999
 30
0.0
 11
0.3691092784
 21
9.276247018699999
 31
0.0
  0
LINE
  5
13E
330
2C
100
AcDbEntity
  8
0
  6
Continuous
 62
     7
100
AcDbLine
 10
0.4691230292000001
 20
9.276247018699999
 30
0.0
 11
0.4769566220000001
 21
9.276247018699999
 31
0.0
  0
LINE
  5
13F
330
2C
100
AcDbEntity
  8
0
  6
Continuous
 62
     7
100
AcDbLine
 10
0.5130224512
 20
9.276247018699999
 30
0.0
 11
0.5199480776
 21
9.276247018699999
 31
0.0
  0
LINE
  5
140
330
2C
100
AcDbEntity
  8
0
  6
Continuous
 62
     7
100
AcDbLine
 10
0.6201915790000001
 20
9.276246015499999
 30
0.0
 11
0.6280833619
 21
9.276246015499999
 31
0.0
  0
LINE
  5
141
330
2C
100
AcDbEntity
  8
0
  6
Continuous
 62
     7
100
AcDbLine
 10
0.7223724098000001
 20
9.276246015499999
 30
0.0
 11
0.7292960297
 21
9.276246015499999
 31
0.0
  0
LINE
  5
142
330
2C
100
AcDbEntity
  8
0
  6
Continuous
 62
     7
100
AcDbLine
 10
0.8364671640999999
 20
9.276246015499999
 30
0.0
 11
0.8443569404000001
 21
9.276246015499999
 31
0.0
  0
LINE
  5
143
330
2C
100
AcDbEntity
  8
0
  6
Continuous
 62
     7
100
AcDbLine
 10
0.8804227695999999
 20
9.2762450122
 30
0.0
 11
0.9701489102
 21
9.2762450122
 31
0.0
  0
LINE
  5
144
330
2C
100
AcDbEntity
  8
0
  6
Continuous
 62
     7
100
AcDbLine
 10
0.0291365675
 20
9.266216247599999
 30
0.0
 11
0.161468905
 21
9.266215244299999
 31
0.0
  0
LINE
  5
145
330
2C
100
AcDbEntity
  8
0
  6
Continuous
 62
     7
100
AcDbLine
 10
0.1950606513
 20
9.266215244299999
 30
0.0
 11
0.2582842063
 21
9.266215244299999
 31
0.0
  0
LINE
  5
146
330
2C
100
AcDbEntity
  8
0
  6
Continuous
 62
     7
100
AcDbLine
 10
0.3594968741
 20
9.2662142411
 30
0.0
 11
0.3664214972
 21
9.2662142411
 31
0.0
  0
LINE
  5
147
330
2C
100
AcDbEntity
  8
0
  6
Continuous
 62
     7
100
AcDbLine
 10
0.4673452210000001
 20
9.2662142411
 30
0.0
 11
0.4742698441
 21
9.2662142411
 31
0.0
  0
LINE
  5
148
330
2C
100
AcDbEntity
  8
0
  6
Continuous
 62
     7
100
AcDbLine
 10
0.5103336667000001
 20
9.2662142411
 30
0.0
 11
0.5172592932
 21
9.2662142411
 31
0.0
  0
LINE
  5
149
330
2C
100
AcDbEntity
  8
0
  6
Continuous
 62
     7
100
AcDbLine
 10
0.6184709576
 20
9.266213237799998
 30
0.0
 11
0.6253945775
 21
9.266213237799998
 31
0.0
  0
LINE
  5
14A
330
2C
100
AcDbEntity
  8
0
  6
Continuous
 62
     7
100
AcDbLine
 10
0.7196836254000001
 20
9.266213237799998
 30
0.0
 11
0.7266072452
 21
9.266213237799998
 31
0.0
  0
LINE
  5
14B
330
2C
100
AcDbEntity
  8
0
  6
Continuous
 62
     7
100
AcDbLine
 10
0.8347445361
 20
9.266213237799998
 30
0.0
 11
0.8416681559999998
 21
9.266213237799998
 31
0.0
  0
LINE
  5
14C
330
2C
100
AcDbEntity
  8
0
  6
Continuous
 62
     7
100
AcDbLine
 10
0.8777339852
 20
9.266212234500001
 30
0.0
 11
0.9701489102
 21
9.266212234500001
 31
0.0
  0
LINE
  5
14D
330
2C
100
AcDbEntity
  8
0
  6
Continuous
 62
     7
100
AcDbLine
 10
0.0291355642
 20
9.2561824667
 30
0.0
 11
0.1653315245
 21
9.2561814634
 31
0.0
  0
LINE
  5
14E
330
2C
100
AcDbEntity
  8
0
  6
Continuous
 62
     7
100
AcDbLine
 10
0.1989232707
 20
9.2561814634
 30
0.0
 11
0.2555954219
 21
9.2561814634
 31
0.0
  0
LINE
  5
14F
330
2C
100
AcDbEntity
  8
0
  6
Continuous
 62
     7
100
AcDbLine
 10
0.2897550233
 20
9.2561814634
 30
0.0
 11
0.3637317095000001
 21
9.2561814634
 31
0.0
  0
LINE
  5
150
330
2C
100
AcDbEntity
  8
0
  6
Continuous
 62
     7
100
AcDbLine
 10
0.3997975386999999
 20
9.2561814634
 30
0.0
 11
0.4237879167000001
 21
9.2561814634
 31
0.0
  0
LINE
  5
151
330
2C
100
AcDbEntity
  8
0
  6
Continuous
 62
     7
100
AcDbLine
 10
0.4646564365
 20
9.2561814634
 30
0.0
 11
0.4715810597
 21
9.2561814634
 31
0.0
  0
LINE
  5
152
330
2C
100
AcDbEntity
  8
0
  6
Continuous
 62
     7
100
AcDbLine
 10
0.5076448823
 20
9.2561814634
 30
0.0
 11
0.5145705088
 21
9.2561814634
 31
0.0
  0
LINE
  5
153
330
2C
100
AcDbEntity
  8
0
  6
Continuous
 62
     7
100
AcDbLine
 10
0.5470004593
 20
9.2561814634
 30
0.0
 11
0.5823238629000001
 21
9.2561814634
 31
0.0
  0
LINE
  5
154
330
2C
100
AcDbEntity
  8
0
  6
Continuous
 62
     7
100
AcDbLine
 10
0.6157831765
 20
9.256180460099999
 30
0.0
 11
0.6227057931000001
 21
9.256180460099999
 31
0.0
  0
LINE
  5
155
330
2C
100
AcDbEntity
  8
0
  6
Continuous
 62
     7
100
AcDbLine
 10
0.6551357436
 20
9.256180460099999
 30
0.0
 11
0.6845648904
 21
9.256180460099999
 31
0.0
  0
LINE
  5
156
330
2C
100
AcDbEntity
  8
0
  6
Continuous
 62
     7
100
AcDbLine
 10
0.716994841
 20
9.256180460099999
 30
0.0
 11
0.7239204674
 21
9.256180460099999
 31
0.0
  0
LINE
  5
157
330
2C
100
AcDbEntity
  8
0
  6
Continuous
 62
     7
100
AcDbLine
 10
0.7563504179000001
 20
9.256180460099999
 30
0.0
 11
0.7985964381999999
 21
9.256180460099999
 31
0.0
  0
LINE
  5
158
330
2C
100
AcDbEntity
  8
0
  6
Continuous
 62
     7
100
AcDbLine
 10
0.8320557517000001
 20
9.256180460099999
 30
0.0
 11
0.8389813781
 21
9.256180460099999
 31
0.0
  0
LINE
  5
159
330
2C
100
AcDbEntity
  8
0
  6
Continuous
 62
     7
100
AcDbLine
 10
0.8750452007999999
 20
9.256179456799999
 30
0.0
 11
0.9701489102
 21
9.256179456799999
 31
0.0
  0
LINE
  5
15A
330
2C
100
AcDbEntity
  8
0
  6
Continuous
 62
     7
100
AcDbLine
 10
0.0291355642
 20
9.246149688999999
 30
0.0
 11
0.1691961504
 21
9.246148685699999
 31
0.0
  0
LINE
  5
15B
330
2C
100
AcDbEntity
  8
0
  6
Continuous
 62
     7
100
AcDbLine
 10
0.2027878966
 20
9.246148685699999
 30
0.0
 11
0.2529066375
 21
9.246148685699999
 31
0.0
  0
LINE
  5
15C
330
2C
100
AcDbEntity
  8
0
  6
Continuous
 62
     7
100
AcDbLine
 10
0.2853365881
 20
9.246148685699999
 30
0.0
 11
0.3610439284
 21
9.2461476824
 31
0.0
  0
LINE
  5
15D
330
2C
100
AcDbEntity
  8
0
  6
Continuous
 62
     7
100
AcDbLine
 10
0.3971087543
 20
9.2461476824
 30
0.0
 11
0.4259600131
 21
9.2461476824
 31
0.0
  0
LINE
  5
15E
330
2C
100
AcDbEntity
  8
0
  6
Continuous
 62
     7
100
AcDbLine
 10
0.4619676521000001
 20
9.2461476824
 30
0.0
 11
0.4688932786000001
 21
9.2461476824
 31
0.0
  0
LINE
  5
15F
330
2C
100
AcDbEntity
  8
0
  6
Continuous
 62
     7
100
AcDbLine
 10
0.5049571012
 20
9.2461476824
 30
0.0
 11
0.5118817243000001
 21
9.2461476824
 31
0.0
  0
LINE
  5
160
330
2C
100
AcDbEntity
  8
0
  6
Continuous
 62
     7
100
AcDbLine
 10
0.6130943921
 20
9.246146679199998
 30
0.0
 11
0.6200180120000001
 21
9.246146679199998
 31
0.0
  0
LINE
  5
161
330
2C
100
AcDbEntity
  8
0
  6
Continuous
 62
     7
100
AcDbLine
 10
0.6524469592000001
 20
9.246146679199998
 30
0.0
 11
0.6818771093000002
 21
9.246146679199998
 31
0.0
  0
LINE
  5
162
330
2C
100
AcDbEntity
  8
0
  6
Continuous
 62
     7
100
AcDbLine
 10
0.7143080631000001
 20
9.246146679199998
 30
0.0
 11
0.721231683
 21
9.246146679199998
 31
0.0
  0
LINE
  5
163
330
2C
100
AcDbEntity
  8
0
  6
Continuous
 62
     7
100
AcDbLine
 10
0.8293669673
 20
9.246146679199998
 30
0.0
 11
0.8362925936999999
 21
9.246146679199998
 31
0.0
  0
LINE
  5
164
330
2C
100
AcDbEntity
  8
0
  6
Continuous
 62
     7
100
AcDbLine
 10
0.8723584229
 20
9.246145675900001
 30
0.0
 11
0.9701489102
 21
9.246145675900001
 31
0.0
  0
LINE
  5
165
330
2C
100
AcDbEntity
  8
0
  6
Continuous
 62
     7
100
AcDbLine
 10
0.0291355642
 20
9.236116911299999
 30
0.0
 11
0.1730597731
 21
9.236115908
 31
0.0
  0
LINE
  5
166
330
2C
100
AcDbEntity
  8
0
  6
Continuous
 62
     7
100
AcDbLine
 10
0.2066515193
 20
9.236115908
 30
0.0
 11
0.2502178531
 21
9.236115908
 31
0.0
  0
LINE
  5
167
330
2C
100
AcDbEntity
  8
0
  6
Continuous
 62
     7
100
AcDbLine
 10
0.2826478036
 20
9.236115908
 30
0.0
 11
0.3583561471999999
 21
9.2361149048
 31
0.0
  0
LINE
  5
168
330
2C
100
AcDbEntity
  8
0
  6
Continuous
 62
     7
100
AcDbLine
 10
0.3944209732
 20
9.2361149048
 30
0.0
 11
0.4232722319
 21
9.2361149048
 31
0.0
  0
LINE
  5
169
330
2C
100
AcDbEntity
  8
0
  6
Continuous
 62
     7
100
AcDbLine
 10
0.4592788677000001
 20
9.2361149048
 30
0.0
 11
0.4662044941
 21
9.2361149048
 31
0.0
  0
LINE
  5
16A
330
2C
100
AcDbEntity
  8
0
  6
Continuous
 62
     7
100
AcDbLine
 10
0.5022683168
 20
9.2361149048
 30
0.0
 11
0.5091929399000001
 21
9.2361149048
 31
0.0
  0
LINE
  5
16B
330
2C
100
AcDbEntity
  8
0
  6
Continuous
 62
     7
100
AcDbLine
 10
0.6104056077000001
 20
9.236113901499999
 30
0.0
 11
0.6173312341
 21
9.236113901499999
 31
0.0
  0
LINE
  5
16C
330
2C
100
AcDbEntity
  8
0
  6
Continuous
 62
     7
100
AcDbLine
 10
0.6497591781000001
 20
9.236113901499999
 30
0.0
 11
0.6791903314
 21
9.236113901499999
 31
0.0
  0
LINE
  5
16D
330
2C
100
AcDbEntity
  8
0
  6
Continuous
 62
     7
100
AcDbLine
 10
0.7116192787000001
 20
9.236113901499999
 30
0.0
 11
0.7185428986
 21
9.236113901499999
 31
0.0
  0
LINE
  5
16E
330
2C
100
AcDbEntity
  8
0
  6
Continuous
 62
     7
100
AcDbLine
 10
0.8266811926999999
 20
9.236113901499999
 30
0.0
 11
0.8336038093
 21
9.236113901499999
 31
0.0
  0
LINE
  5
16F
330
2C
100
AcDbEntity
  8
0
  6
Continuous
 62
     7
100
AcDbLine
 10
0.8696696384999999
 20
9.2361128982
 30
0.0
 11
0.9701489102
 21
9.2361128982
 31
0.0
  0
LINE
  5
170
330
2C
100
AcDbEntity
  8
0
  6
Continuous
 62
     7
100
AcDbLine
 10
0.0291365675
 20
9.2260841336
 30
0.0
 11
0.1769233958
 21
9.226083130399999
 31
0.0
  0
LINE
  5
171
330
2C
100
AcDbEntity
  8
0
  6
Continuous
 62
     7
100
AcDbLine
 10
0.210515142
 20
9.226083130399999
 30
0.0
 11
0.2475300719
 21
9.226083130399999
 31
0.0
  0
LINE
  5
172
330
2C
100
AcDbEntity
  8
0
  6
Continuous
 62
     7
100
AcDbLine
 10
0.2799600225
 20
9.226083130399999
 30
0.0
 11
0.3556673628
 21
9.226082127099999
 31
0.0
  0
LINE
  5
173
330
2C
100
AcDbEntity
  8
0
  6
Continuous
 62
     7
100
AcDbLine
 10
0.391733192
 20
9.226082127099999
 30
0.0
 11
0.4205844508000001
 21
9.226082127099999
 31
0.0
  0
LINE
  5
174
330
2C
100
AcDbEntity
  8
0
  6
Continuous
 62
     7
100
AcDbLine
 10
0.4565900833
 20
9.226082127099999
 30
0.0
 11
0.4635157097000001
 21
9.226082127099999
 31
0.0
  0
LINE
  5
175
330
2C
100
AcDbEntity
  8
0
  6
Continuous
 62
     7
100
AcDbLine
 10
0.4995795324000001
 20
9.226082127099999
 30
0.0
 11
0.5065051588000001
 21
9.226082127099999
 31
0.0
  0
LINE
  5
176
330
2C
100
AcDbEntity
  8
0
  6
Continuous
 62
     7
100
AcDbLine
 10
0.6077168232
 20
9.2260811238
 30
0.0
 11
0.6146424497
 21
9.2260811238
 31
0.0
  0
LINE
  5
177
330
2C
100
AcDbEntity
  8
0
  6
Continuous
 62
     7
100
AcDbLine
 10
0.6470703937
 20
9.2260811238
 30
0.0
 11
0.676501547
 21
9.2260811238
 31
0.0
  0
LINE
  5
178
330
2C
100
AcDbEntity
  8
0
  6
Continuous
 62
     7
100
AcDbLine
 10
0.7089314975
 20
9.2260811238
 30
0.0
 11
0.7158541141
 21
9.2260811238
 31
0.0
  0
LINE
  5
179
330
2C
100
AcDbEntity
  8
0
  6
Continuous
 62
     7
100
AcDbLine
 10
0.8239924083
 20
9.2260811238
 30
0.0
 11
0.8309150248999998
 21
9.2260811238
 31
0.0
  0
LINE
  5
17A
330
2C
100
AcDbEntity
  8
0
  6
Continuous
 62
     7
100
AcDbLine
 10
0.8669808540999998
 20
9.226080120499998
 30
0.0
 11
0.9701489102
 21
9.226080120499998
 31
0.0
  0
LINE
  5
17B
330
2C
100
AcDbEntity
  8
0
  6
Continuous
 62
     7
100
AcDbLine
 10
0.0291365675
 20
9.216051355999999
 30
0.0
 11
0.1807870185
 21
9.216050352699999
 31
0.0
  0
LINE
  5
17C
330
2C
100
AcDbEntity
  8
0
  6
Continuous
 62
     7
100
AcDbLine
 10
0.2143787647
 20
9.216050352699999
 30
0.0
 11
0.2448432941
 21
9.216050352699999
 31
0.0
  0
LINE
  5
17D
330
2C
100
AcDbEntity
  8
0
  6
Continuous
 62
     7
100
AcDbLine
 10
0.2772722414
 20
9.216050352699999
 30
0.0
 11
0.3529785784
 21
9.2160493494
 31
0.0
  0
LINE
  5
17E
330
2C
100
AcDbEntity
  8
0
  6
Continuous
 62
     7
100
AcDbLine
 10
0.3890444075999999
 20
9.2160493494
 30
0.0
 11
0.4178956664000001
 21
9.2160493494
 31
0.0
  0
LINE
  5
17F
330
2C
100
AcDbEntity
  8
0
  6
Continuous
 62
     7
100
AcDbLine
 10
0.4539023022000001
 20
9.2160493494
 30
0.0
 11
0.4608269253000001
 21
9.2160493494
 31
0.0
  0
LINE
  5
180
330
2C
100
AcDbEntity
  8
0
  6
Continuous
 62
     7
100
AcDbLine
 10
0.4968927545000001
 20
9.2160493494
 30
0.0
 11
0.5038163744
 21
9.2160493494
 31
0.0
  0
LINE
  5
181
330
2C
100
AcDbEntity
  8
0
  6
Continuous
 62
     7
100
AcDbLine
 10
0.6050300454
 20
9.2160483461
 30
0.0
 11
0.6119536653000001
 21
9.2160483461
 31
0.0
  0
LINE
  5
182
330
2C
100
AcDbEntity
  8
0
  6
Continuous
 62
     7
100
AcDbLine
 10
0.6443836158
 20
9.2160483461
 30
0.0
 11
0.6738127626
 21
9.2160483461
 31
0.0
  0
LINE
  5
183
330
2C
100
AcDbEntity
  8
0
  6
Continuous
 62
     7
100
AcDbLine
 10
0.7062427131
 20
9.2160483461
 30
0.0
 11
0.7131663330000001
 21
9.2160483461
 31
0.0
  0
LINE
  5
184
330
2C
100
AcDbEntity
  8
0
  6
Continuous
 62
     7
100
AcDbLine
 10
0.8213036239
 20
9.2160483461
 30
0.0
 11
0.8282272437999999
 21
9.2160483461
 31
0.0
  0
LINE
  5
185
330
2C
100
AcDbEntity
  8
0
  6
Continuous
 62
     7
100
AcDbLine
 10
0.8642920696999999
 20
9.216047342899999
 30
0.0
 11
0.9701489102
 21
9.216047342899999
 31
0.0
  0
LINE
  5
186
330
2C
100
AcDbEntity
  8
0
  6
Continuous
 62
     7
100
AcDbLine
 10
0.0291365675
 20
9.206017575
 30
0.0
 11
0.1846506411
 21
9.206016571699999
 31
0.0
  0
LINE
  5
187
330
2C
100
AcDbEntity
  8
0
  6
Continuous
 62
     7
100
AcDbLine
 10
0.2182413841
 20
9.206016571699999
 30
0.0
 11
0.2421545097
 21
9.206016571699999
 31
0.0
  0
LINE
  5
188
330
2C
100
AcDbEntity
  8
0
  6
Continuous
 62
     7
100
AcDbLine
 10
0.3433651708
 20
9.206016571699999
 30
0.0
 11
0.3502907973
 21
9.206015568499999
 31
0.0
  0
LINE
  5
189
330
2C
100
AcDbEntity
  8
0
  6
Continuous
 62
     7
100
AcDbLine
 10
0.3863556232
 20
9.206015568499999
 30
0.0
 11
0.4152068819000001
 21
9.206015568499999
 31
0.0
  0
LINE
  5
18A
330
2C
100
AcDbEntity
  8
0
  6
Continuous
 62
     7
100
AcDbLine
 10
0.451214521
 20
9.206015568499999
 30
0.0
 11
0.4581391442000001
 21
9.206015568499999
 31
0.0
  0
LINE
  5
18B
330
2C
100
AcDbEntity
  8
0
  6
Continuous
 62
     7
100
AcDbLine
 10
0.4942039701
 20
9.206015568499999
 30
0.0
 11
0.5011295965000001
 21
9.206015568499999
 31
0.0
  0
LINE
  5
18C
330
2C
100
AcDbEntity
  8
0
  6
Continuous
 62
     7
100
AcDbLine
 10
0.6023402577
 20
9.206015568499999
 30
0.0
 11
0.6092648808
 21
9.2060145652
 31
0.0
  0
LINE
  5
18D
330
2C
100
AcDbEntity
  8
0
  6
Continuous
 62
     7
100
AcDbLine
 10
0.7035539287
 20
9.2060145652
 30
0.0
 11
0.7104775486000001
 21
9.2060145652
 31
0.0
  0
LINE
  5
18E
330
2C
100
AcDbEntity
  8
0
  6
Continuous
 62
     7
100
AcDbLine
 10
0.8186148395
 20
9.2060145652
 30
0.0
 11
0.8255384593
 21
9.2060145652
 31
0.0
  0
LINE
  5
18F
330
2C
100
AcDbEntity
  8
0
  6
Continuous
 62
     7
100
AcDbLine
 10
0.8616042884999998
 20
9.2060145652
 30
0.0
 11
0.9701489102
 21
9.2060135619
 31
0.0
  0
LINE
  5
190
330
2C
100
AcDbEntity
  8
0
  6
Continuous
 62
     7
100
AcDbLine
 10
0.0291365675
 20
9.195984797299999
 30
0.0
 11
0.1885142638
 21
9.195983794099999
 31
0.0
  0
LINE
  5
191
330
2C
100
AcDbEntity
  8
0
  6
Continuous
 62
     7
100
AcDbLine
 10
0.2221050068
 20
9.195983794099999
 30
0.0
 11
0.2396533382
 21
9.195983794099999
 31
0.0
  0
LINE
  5
192
330
2C
100
AcDbEntity
  8
0
  6
Continuous
 62
     7
100
AcDbLine
 10
0.3406773897
 20
9.195983794099999
 30
0.0
 11
0.3476020129
 21
9.1959827908
 31
0.0
  0
LINE
  5
193
330
2C
100
AcDbEntity
  8
0
  6
Continuous
 62
     7
100
AcDbLine
 10
0.3836668388
 20
9.1959827908
 30
0.0
 11
0.4125191008
 21
9.1959827908
 31
0.0
  0
LINE
  5
194
330
2C
100
AcDbEntity
  8
0
  6
Continuous
 62
     7
100
AcDbLine
 10
0.4485267399000001
 20
9.1959827908
 30
0.0
 11
0.455451363
 21
9.1959827908
 31
0.0
  0
LINE
  5
195
330
2C
100
AcDbEntity
  8
0
  6
Continuous
 62
     7
100
AcDbLine
 10
0.4915151857000001
 20
9.1959827908
 30
0.0
 11
0.4986264185
 21
9.1959827908
 31
0.0
  0
LINE
  5
196
330
2C
100
AcDbEntity
  8
0
  6
Continuous
 62
     7
100
AcDbLine
 10
0.5996534797999999
 20
9.1959827908
 30
0.0
 11
0.6067637094000001
 21
9.195981787499999
 31
0.0
  0
LINE
  5
197
330
2C
100
AcDbEntity
  8
0
  6
Continuous
 62
     7
100
AcDbLine
 10
0.7008651443
 20
9.195981787499999
 30
0.0
 11
0.7079763771
 21
9.195981787499999
 31
0.0
  0
LINE
  5
198
330
2C
100
AcDbEntity
  8
0
  6
Continuous
 62
     7
100
AcDbLine
 10
0.8159260551
 20
9.195981787499999
 30
0.0
 11
0.8228516815
 21
9.195981787499999
 31
0.0
  0
LINE
  5
199
330
2C
100
AcDbEntity
  8
0
  6
Continuous
 62
     7
100
AcDbLine
 10
0.8589155040999999
 20
9.195981787499999
 30
0.0
 11
0.9701489102
 21
9.195980784199999
 31
0.0
  0
LINE
  5
19A
330
2C
100
AcDbEntity
  8
0
  6
Continuous
 62
     7
100
AcDbLine
 10
0.0291365675
 20
9.1859520197
 30
0.0
 11
0.1923778865
 21
9.1859510164
 31
0.0
  0
LINE
  5
19B
330
2C
100
AcDbEntity
  8
0
  6
Continuous
 62
     7
100
AcDbLine
 10
0.2259686294
 20
9.1859510164
 30
0.0
 11
0.24112615
 21
9.1859510164
 31
0.0
  0
LINE
  5
19C
330
2C
100
AcDbEntity
  8
0
  6
Continuous
 62
     7
100
AcDbLine
 10
0.3379896086
 20
9.1859510164
 30
0.0
 11
0.3449142317
 21
9.185950013099999
 31
0.0
  0
LINE
  5
19D
330
2C
100
AcDbEntity
  8
0
  6
Continuous
 62
     7
100
AcDbLine
 10
0.3809780543
 20
9.185950013099999
 30
0.0
 11
0.4098313197
 21
9.185950013099999
 31
0.0
  0
LINE
  5
19E
330
2C
100
AcDbEntity
  8
0
  6
Continuous
 62
     7
100
AcDbLine
 10
0.4458379555
 20
9.185950013099999
 30
0.0
 11
0.4527635819000001
 21
9.185950013099999
 31
0.0
  0
LINE
  5
19F
330
2C
100
AcDbEntity
  8
0
  6
Continuous
 62
     7
100
AcDbLine
 10
0.4888264012
 20
9.185950013099999
 30
0.0
 11
0.5001022401
 21
9.185950013099999
 31
0.0
  0
LINE
  5
1A0
330
2C
100
AcDbEntity
  8
0
  6
Continuous
 62
     7
100
AcDbLine
 10
0.5969646954
 20
9.185950013099999
 30
0.0
 11
0.6082395310000001
 21
9.185949009799999
 31
0.0
  0
LINE
  5
1A1
330
2C
100
AcDbEntity
  8
0
  6
Continuous
 62
     7
100
AcDbLine
 10
0.6981763598999999
 20
9.185949009799999
 30
0.0
 11
0.7094532020000001
 21
9.185949009799999
 31
0.0
  0
LINE
  5
1A2
330
2C
100
AcDbEntity
  8
0
  6
Continuous
 62
     7
100
AcDbLine
 10
0.8132372705999999
 20
9.185949009799999
 30
0.0
 11
0.8201628970999998
 21
9.185949009799999
 31
0.0
  0
LINE
  5
1A3
330
2C
100
AcDbEntity
  8
0
  6
Continuous
 62
     7
100
AcDbLine
 10
0.8562287261999999
 20
9.185949009799999
 30
0.0
 11
0.9701489102
 21
9.1859480065
 31
0.0
  0
LINE
  5
1A4
330
2C
100
AcDbEntity
  8
0
  6
Continuous
 62
     7
100
AcDbLine
 10
0.0291365675
 20
9.175919242
 30
0.0
 11
0.1935567379
 21
9.175918238699999
 31
0.0
  0
LINE
  5
1A5
330
2C
100
AcDbEntity
  8
0
  6
Continuous
 62
     7
100
AcDbLine
 10
0.2298322521
 20
9.175918238699999
 30
0.0
 11
0.6624827467000002
 21
9.1759162322
 31
0.0
  0
LINE
  5
1A6
330
2C
100
AcDbEntity
  8
0
  6
Continuous
 62
     7
100
AcDbLine
 10
0.6954885787000001
 20
9.1759162322
 30
0.0
 11
0.9701489102
 21
9.175915228899999
 31
0.0
  0
LINE
  5
1A7
330
2C
100
AcDbEntity
  8
0
  6
Continuous
 62
     7
100
AcDbLine
 10
0.0291365675
 20
9.165885461
 30
0.0
 11
0.0967444464
 21
9.165884457799998
 31
0.0
  0
LINE
  5
1A8
330
2C
100
AcDbEntity
  8
0
  6
Continuous
 62
     7
100
AcDbLine
 10
0.2336958748
 20
9.165884457799998
 30
0.0
 11
0.598512753
 21
9.165883454500001
 31
0.0
  0
LINE
  5
1A9
330
2C
100
AcDbEntity
  8
0
  6
Continuous
 62
     7
100
AcDbLine
 10
0.6928018009
 20
9.165883454500001
 30
0.0
 11
0.9701489102
 21
9.165882451199999
 31
0.0
  0
LINE
  5
1AA
330
2C
100
AcDbEntity
  8
0
  6
Continuous
 62
     7
100
AcDbLine
 10
0.0291365675
 20
9.1558526834
 30
0.0
 11
0.0940566653
 21
9.155851680099999
 31
0.0
  0
LINE
  5
1AB
330
2C
100
AcDbEntity
  8
0
  6
Continuous
 62
     7
100
AcDbLine
 10
0.2354305421
 20
9.155851680099999
 30
0.0
 11
0.5958239686
 21
9.1558506768
 31
0.0
  0
LINE
  5
1AC
330
2C
100
AcDbEntity
  8
0
  6
Continuous
 62
     7
100
AcDbLine
 10
0.6901130165
 20
9.1558496735
 30
0.0
 11
0.9701489102
 21
9.155848670199999
 31
0.0
  0
LINE
  5
1AD
330
2C
100
AcDbEntity
  8
0
  6
Continuous
 62
     7
100
AcDbLine
 10
0.0291365675
 20
9.145819905699999
 30
0.0
 11
0.0913678809
 21
9.1458189024
 31
0.0
  0
LINE
  5
1AE
330
2C
100
AcDbEntity
  8
0
  6
Continuous
 62
     7
100
AcDbLine
 10
0.2292292822
 20
9.1458189024
 30
0.0
 11
0.5931351842
 21
9.145817899099998
 31
0.0
  0
LINE
  5
1AF
330
2C
100
AcDbEntity
  8
0
  6
Continuous
 62
     7
100
AcDbLine
 10
0.6837823337000001
 20
9.145816895800001
 30
0.0
 11
0.9701489102
 21
9.145815892599999
 31
0.0
  0
LINE
  5
1B0
330
2C
100
AcDbEntity
  8
0
  6
Continuous
 62
     7
100
AcDbLine
 10
0.0291365675
 20
9.135787127999998
 30
0.0
 11
0.9701489102
 21
9.1357831149
 31
0.0
  0
LINE
  5
1B1
330
2C
100
AcDbEntity
  8
0
  6
Continuous
 62
     7
100
AcDbLine
 10
0.0291355642
 20
9.125753347099999
 30
0.0
 11
0.9701489102
 21
9.125750337199999
 31
0.0
  0
LINE
  5
1B2
330
2C
100
AcDbEntity
  8
0
  6
Continuous
 62
     7
100
AcDbLine
 10
0.0299743045
 20
9.1157205694
 30
0.0
 11
0.9693111732999998
 21
9.1157165563
 31
0.0
  0
LINE
  5
1B3
330
2C
100
AcDbEntity
  8
0
  6
Continuous
 62
     7
100
AcDbLine
 10
0.0323681252
 20
9.105687791699999
 30
0.0
 11
0.9669173524999999
 21
9.105683778599999
 31
0.0
  0
LINE
  5
1B4
330
2C
100
AcDbEntity
  8
0
  6
Continuous
 62
     7
100
AcDbLine
 10
0.037258101
 20
9.095655014
 30
0.0
 11
0.9620253700999999
 21
9.0956510009
 31
0.0
  0
LINE
  5
1B5
330
2C
100
AcDbEntity
  8
0
  6
Continuous
 62
     7
100
AcDbLine
 10
0.0460397913
 20
9.085622236399998
 30
0.0
 11
0.9532426765
 21
9.0856182232
 31
0.0
  0
LINE
  5
1B6
330
2C
100
AcDbEntity
  8
0
  6
Continuous
 62
     7
100
AcDbLine
 10
0.0639081684
 20
9.0755884554
 30
0.0
 11
0.9353732962
 21
9.075585445599999
 31
0.0
  0
ENDBLK
  5
1B7
330
2C
100
AcDbEntity
  8
0
100
AcDbBlockEnd
  0
BLOCK
  5
1B9
330
1B8
100
AcDbEntity
  8
0
  6
Continuous
 62
     2
100
AcDbBlockBegin
  2
*D1
 70
     1
 10
0.0
 20
0.0
 30
0.0
  3
*D1
  1

  0
TEXT
  5
1BA
330
1B8
100
AcDbEntity
  8
0
  6
Continuous
 62
     2
100
AcDbText
 10
6.810979337
 20
2.8071457731
 30
0.0
 40
0.1
  1
.110
 41
1.476923076923074
 72
     5
 11
7.130979337
 21
2.8071457731
 31
0.0
100
AcDbText
  0
TEXT
  5
1BB
330
1B8
100
AcDbEntity
  8
0
  6
Continuous
 62
     2
100
AcDbText
 10
7.130979337
 20
2.8071457731
 30
0.0
 40
0.1
  1
%%p.010
 41
1.310000000099999
 72
     5
 11
7.5676460037
 21
2.8071457731
 31
0.0
100
AcDbText
  0
LINE
  5
1BC
330
1B8
100
AcDbEntity
  8
0
  6
Continuous
 62
     2
100
AcDbLine
 10
6.5283772245
 20
4.454785410199999
 30
0.0
 11
7.314312670399999
 21
4.454785410199999
 31
0.0
  0
LINE
  5
1BD
330
1B8
100
AcDbEntity
  8
0
  6
Continuous
 62
     2
100
AcDbLine
 10
6.5283772245
 20
3.354785410199999
 30
0.0
 11
7.314312670399999
 21
3.354785410199999
 31
0.0
  0
LINE
  5
1BE
330
1B8
100
AcDbEntity
  8
0
  6
Continuous
 62
     2
100
AcDbLine
 10
7.189312670399999
 20
4.454785410199999
 30
0.0
 11
7.189312670399999
 21
3.904785410199999
 31
0.0
  0
LINE
  5
1BF
330
1B8
100
AcDbEntity
  8
0
  6
Continuous
 62
     2
100
AcDbLine
 10
7.189312670399999
 20
3.354785410199999
 30
0.0
 11
7.189312670399999
 21
3.904785410199999
 31
0.0
  0
LINE
  5
1C0
330
1B8
100
AcDbEntity
  8
0
  6
Continuous
 62
     2
100
AcDbLine
 10
7.189312670399999
 20
3.904785410199999
 30
0.0
 11
7.189312670399999
 21
2.9571457731
 31
0.0
  0
LWPOLYLINE
  5
1C1
330
1B8
100
AcDbEntity
  8
0
  6
Continuous
 62
     2
100
AcDbPolyline
 90
        4
 70
     0
 43
0.0
 10
7.220562670399999
 20
4.267285410199999
 10
7.189312670399999
 20
4.454785410199999
 10
7.158062670399999
 20
4.267285410199999
 10
7.220562670399999
 20
4.267285410199999
  0
LWPOLYLINE
  5
1C7
330
1B8
100
AcDbEntity
  8
0
  6
Continuous
 62
     2
100
AcDbPolyline
 90
        4
 70
     0
 43
0.0
 10
7.158062670399999
 20
3.542285410199999
 10
7.189312670399999
 20
3.354785410199999
 10
7.220562670399999
 20
3.542285410199999
 10
7.158062670399999
 20
3.542285410199999
  0
ENDBLK
  5
1CD
330
1B8
100
AcDbEntity
  8
0
100
AcDbBlockEnd
  0
BLOCK
  5
1CF
330
1CE
100
AcDbEntity
  8
0
  6
Continuous
 62
     2
100
AcDbBlockBegin
  2
*D2
 70
     1
 10
0.0
 20
0.0
 30
0.0
  3
*D2
  1

  0
TEXT
  5
1D0
330
1CE
100
AcDbEntity
  8
0
  6
Continuous
 62
     2
100
AcDbText
 10
4.6534572855
 20
5.340068379099999
 30
0.0
 40
0.1
  1
.100
 41
1.371428571428573
 72
     5
 11
4.9734572855
 21
5.340068379099999
 31
0.0
100
AcDbText
  0
LINE
  5
1D1
330
1CE
100
AcDbEntity
  8
0
  6
Continuous
 62
     2
100
AcDbLine
 10
3.1478536293
 20
5.461884601399999
 30
0.0
 11
3.1478536293
 21
5.2650683791
 31
0.0
  0
LINE
  5
1D2
330
1CE
100
AcDbEntity
  8
0
  6
Continuous
 62
     2
100
AcDbLine
 10
4.1478536293
 20
5.500002916
 30
0.0
 11
4.1478536293
 21
5.2650683791
 31
0.0
  0
LINE
  5
1D3
330
1CE
100
AcDbEntity
  8
0
  6
Continuous
 62
     2
100
AcDbLine
 10
3.1478536293
 20
5.390068379099999
 30
0.0
 11
2.6478536293
 21
5.390068379099999
 31
0.0
  0
LINE
  5
1D4
330
1CE
100
AcDbEntity
  8
0
  6
Continuous
 62
     2
100
AcDbLine
 10
4.1478536293
 20
5.390068379099999
 30
0.0
 11
4.6034572855
 21
5.390068379099999
 31
0.0
  0
LWPOLYLINE
  5
1D5
330
1CE
100
AcDbEntity
  8
0
  6
Continuous
 62
     2
100
AcDbPolyline
 90
        4
 70
     0
 43
0.0
 10
2.9603536293
 20
5.3588183791
 10
3.1478536293
 20
5.390068379099999
 10
2.9603536293
 20
5.421318379099999
 10
2.9603536293
 20
5.3588183791
  0
LWPOLYLINE
  5
1DB
330
1CE
100
AcDbEntity
  8
0
  6
Continuous
 62
     2
100
AcDbPolyline
 90
        4
 70
     0
 43
0.0
 10
4.3353536293
 20
5.421318379099999
 10
4.1478536293
 20
5.390068379099999
 10
4.3353536293
 20
5.3588183791
 10
4.3353536293
 20
5.421318379099999
  0
ENDBLK
  5
1E1
330
1CE
100
AcDbEntity
  8
0
100
AcDbBlockEnd
  0
BLOCK
  5
1E3
330
1E2
100
AcDbEntity
  8
0
  6
Continuous
 62
     2
100
AcDbBlockBegin
  2
*D3
 70
     1
 10
0.0
 20
0.0
 30
0.0
  3
*D3
  1

  0
TEXT
  5
1E4
330
1E2
100
AcDbEntity
  8
0
  6
Continuous
 62
     2
100
AcDbText
 10
5.391802439099999
 20
7.884962967199999
 30
0.0
 40
0.1
  1
REF.
 41
1.066666666666667
 72
     5
 11
5.711802439099999
 21
7.884962967199999
 31
0.0
100
AcDbText
  0
TEXT
  5
1E5
330
1E2
100
AcDbEntity
  8
0
  6
Continuous
 62
     2
100
AcDbText
 10
5.391802439099999
 20
8.0349629672
 30
0.0
 40
0.1
  1
.275
 41
1.066666666666667
 72
     5
 11
5.711802439099999
 21
8.0349629672
 31
0.0
100
AcDbText
  0
LINE
  5
1E6
330
1E2
100
AcDbEntity
  8
0
  6
Continuous
 62
     2
100
AcDbLine
 10
4.1478536293
 20
7.1396233212
 30
0.0
 11
4.1478536293
 21
8.2099629672
 31
0.0
  0
LINE
  5
1E7
330
1E2
100
AcDbEntity
  8
0
  6
Continuous
 62
     2
100
AcDbLine
 10
6.897853629299999
 20
3.967285410199999
 30
0.0
 11
6.897853629299999
 21
8.2099629672
 31
0.0
  0
LINE
  5
1E8
330
1E2
100
AcDbEntity
  8
0
  6
Continuous
 62
     2
100
AcDbLine
 10
4.1478536293
 20
8.0849629672
 30
0.0
 11
5.3418024391
 21
8.0849629672
 31
0.0
  0
LINE
  5
1E9
330
1E2
100
AcDbEntity
  8
0
  6
Continuous
 62
     2
100
AcDbLine
 10
6.897853629299999
 20
8.0849629672
 30
0.0
 11
5.761802439099999
 21
8.0849629672
 31
0.0
  0
LWPOLYLINE
  5
1EA
330
1E2
100
AcDbEntity
  8
0
  6
Continuous
 62
     2
100
AcDbPolyline
 90
        4
 70
     0
 43
0.0
 10
4.3353536293
 20
8.1162129672
 10
4.1478536293
 20
8.0849629672
 10
4.3353536293
 20
8.0537129672
 10
4.3353536293
 20
8.1162129672
  0
LWPOLYLINE
  5
1F0
330
1E2
100
AcDbEntity
  8
0
  6
Continuous
 62
     2
100
AcDbPolyline
 90
        4
 70
     0
 43
0.0
 10
6.710353629299999
 20
8.0537129672
 10
6.897853629299999
 20
8.0849629672
 10
6.710353629299999
 20
8.1162129672
 10
6.710353629299999
 20
8.0537129672
  0
ENDBLK
  5
1F6
330
1E2
100
AcDbEntity
  8
0
100
AcDbBlockEnd
  0
BLOCK
  5
1F8
330
1F7
100
AcDbEntity
  8
0
  6
Continuous
 62
     2
100
AcDbBlockBegin
  2
*D4
 70
     1
 10
0.0
 20
0.0
 30
0.0
  3
*D4
  1

  0
TEXT
  5
1F9
330
1F7
100
AcDbEntity
  8
0
  6
Continuous
 62
     2
100
AcDbText
 10
0.3702640492
 20
5.461907677899999
 30
0.0
 40
0.1
  1
.375
 41
1.066666666666666
 72
     5
 11
0.6902640492000001
 21
5.461907677899999
 31
0.0
100
AcDbText
  0
LINE
  5
1FA
330
1F7
100
AcDbEntity
  8
0
  6
Continuous
 62
     2
100
AcDbLine
 10
3.385353629299999
 20
3.604785410199999
 30
0.0
 11
0.4052640492
 21
3.604785410199999
 31
0.0
  0
LINE
  5
1FB
330
1F7
100
AcDbEntity
  8
0
  6
Continuous
 62
     2
100
AcDbLine
 10
3.385353629299999
 20
7.354785410199999
 30
0.0
 11
0.4052640492
 21
7.354785410199999
 31
0.0
  0
LINE
  5
1FC
330
1F7
100
AcDbEntity
  8
0
  6
Continuous
 62
     2
100
AcDbLine
 10
0.5302640492
 20
3.604785410199999
 30
0.0
 11
0.5302640492
 21
5.411907677899999
 31
0.0
  0
LINE
  5
1FD
330
1F7
100
AcDbEntity
  8
0
  6
Continuous
 62
     2
100
AcDbLine
 10
0.5302640492
 20
7.354785410199999
 30
0.0
 11
0.5302640492
 21
5.611907677899999
 31
0.0
  0
LWPOLYLINE
  5
1FE
330
1F7
100
AcDbEntity
  8
0
  6
Continuous
 62
     2
100
AcDbPolyline
 90
        4
 70
     0
 43
0.0
 10
0.4990140492
 20
3.792285410199999
 10
0.5302640492
 20
3.604785410199999
 10
0.5615140492
 20
3.792285410199999
 10
0.4990140492
 20
3.792285410199999
  0
LWPOLYLINE
  5
204
330
1F7
100
AcDbEntity
  8
0
  6
Continuous
 62
     2
100
AcDbPolyline
 90
        4
 70
     0
 43
0.0
 10
0.5615140492
 20
7.167285410199999
 10
0.5302640492
 20
7.354785410199999
 10
0.4990140492
 20
7.167285410199999
 10
0.5615140492
 20
7.167285410199999
  0
ENDBLK
  5
20A
330
1F7
100
AcDbEntity
  8
0
100
AcDbBlockEnd
  0
BLOCK
  5
20C
330
20B
100
AcDbEntity
  8
0
  6
Continuous
 62
     2
100
AcDbBlockBegin
  2
*D5
 70
     1
 10
0.0
 20
0.0
 30
0.0
  3
*D5
  1

  0
TEXT
  5
20D
330
20B
100
AcDbEntity
  8
0
  6
Continuous
 62
     2
100
AcDbText
 10
2.398205209299999
 20
8.0349629672
 30
0.0
 40
0.1
  1
.329
 41
1.066666666666667
 72
     5
 11
2.7182052093
 21
8.0349629672
 31
0.0
100
AcDbText
  0
LINE
  5
20E
330
20B
100
AcDbEntity
  8
0
  6
Continuous
 62
     2
100
AcDbLine
 10
4.1478536293
 20
7.0238124398
 30
0.0
 11
4.1478536293
 21
8.2099629672
 31
0.0
  0
LINE
  5
20F
330
20B
100
AcDbEntity
  8
0
  6
Continuous
 62
     2
100
AcDbLine
 10
0.8578536293
 20
5.087285410199999
 30
0.0
 11
0.8578536293
 21
8.2099629672
 31
0.0
  0
LINE
  5
210
330
20B
100
AcDbEntity
  8
0
  6
Continuous
 62
     2
100
AcDbLine
 10
4.1478536293
 20
8.0849629672
 30
0.0
 11
2.7682052093
 21
8.0849629672
 31
0.0
  0
LINE
  5
211
330
20B
100
AcDbEntity
  8
0
  6
Continuous
 62
     2
100
AcDbLine
 10
0.8578536293
 20
8.0849629672
 30
0.0
 11
2.3482052093
 21
8.0849629672
 31
0.0
  0
LWPOLYLINE
  5
212
330
20B
100
AcDbEntity
  8
0
  6
Continuous
 62
     2
100
AcDbPolyline
 90
        4
 70
     0
 43
0.0
 10
3.9603536293
 20
8.0537129672
 10
4.1478536293
 20
8.0849629672
 10
3.9603536293
 20
8.1162129672
 10
3.9603536293
 20
8.0537129672
  0
LWPOLYLINE
  5
218
330
20B
100
AcDbEntity
  8
0
  6
Continuous
 62
     2
100
AcDbPolyline
 90
        4
 70
     0
 43
0.0
 10
1.0453536293
 20
8.1162129672
 10
0.8578536293
 20
8.0849629672
 10
1.0453536293
 20
8.0537129672
 10
1.0453536293
 20
8.1162129672
  0
ENDBLK
  5
21E
330
20B
100
AcDbEntity
  8
0
100
AcDbBlockEnd
  0
BLOCK
  5
220
330
21F
100
AcDbEntity
  8
0
  6
Continuous
 62
     2
100
AcDbBlockBegin
  2
*D6
 70
     1
 10
0.0
 20
0.0
 30
0.0
  3
*D6
  1

  0
TEXT
  5
221
330
21F
100
AcDbEntity
  8
0
  6
Continuous
 62
     2
100
AcDbText
 10
1.665408612899999
 20
6.8041589608
 30
0.0
 40
0.1
  1
.100
 41
1.371428571428571
 72
     5
 11
1.985408612899999
 21
6.8041589608
 31
0.0
100
AcDbText
  0
LINE
  5
222
330
21F
100
AcDbEntity
  8
0
  6
Continuous
 62
     2
100
AcDbLine
 10
1.067729786999999
 20
5.436773767
 30
0.0
 11
2.0169399136
 21
6.299833882399999
 31
0.0
  0
LINE
  5
223
330
21F
100
AcDbEntity
  8
0
  6
Continuous
 62
     2
100
AcDbLine
 10
2.767064150599999
 20
5.630315779
 30
0.0
 11
2.504701967099999
 21
5.3917655044
 31
0.0
  0
LINE
  5
224
330
21F
100
AcDbEntity
  8
0
  6
Continuous
 62
     2
100
AcDbLine
 10
1.924454282499999
 20
6.215742217899999
 30
0.0
 11
1.343980041399999
 21
6.8541589608
 31
0.0
  0
LINE
  5
225
330
21F
100
AcDbEntity
  8
0
  6
Continuous
 62
     2
100
AcDbLine
 10
1.343980041399999
 20
6.8541589608
 30
0.0
 11
1.615408612899999
 21
6.8541589608
 31
0.0
  0
LINE
  5
226
330
21F
100
AcDbEntity
  8
0
  6
Continuous
 62
     2
100
AcDbLine
 10
2.5971875982
 20
5.4758571689
 30
0.0
 11
2.9335542561
 21
5.1059146443
 31
0.0
  0
LWPOLYLINE
  5
227
330
21F
100
AcDbEntity
  8
0
  6
Continuous
 62
     2
100
AcDbPolyline
 90
        4
 70
     0
 43
0.0
 10
1.775195378
 20
6.3334477485
 10
1.924454282499999
 20
6.215742217899999
 10
1.821438193499999
 20
6.3754935808
 10
1.775195378
 20
6.3334477485
  0
LWPOLYLINE
  5
22D
330
21F
100
AcDbEntity
  8
0
  6
Continuous
 62
     2
100
AcDbPolyline
 90
        4
 70
     0
 43
0.0
 10
2.7464465027
 20
5.358151638299999
 10
2.5971875982
 20
5.4758571689
 10
2.7002036872
 20
5.316105806
 10
2.7464465027
 20
5.358151638299999
  0
ENDBLK
  5
233
330
21F
100
AcDbEntity
  8
0
100
AcDbBlockEnd
  0
BLOCK
  5
235
330
234
100
AcDbEntity
  8
0
  6
Continuous
 62
     2
100
AcDbBlockBegin
  2
*D7
 70
     1
 10
0.0
 20
0.0
 30
0.0
  3
*D7
  1

  0
TEXT
  5
236
330
234
100
AcDbEntity
  8
0
  6
Continuous
 62
     2
100
AcDbText
 10
2.070075131199999
 20
4.0093498697
 30
0.0
 40
0.1
  1
.092
 41
1.129411764705883
 72
     5
 11
2.3900751312
 21
4.0093498697
 31
0.0
100
AcDbText
  0
LINE
  5
237
330
234
100
AcDbEntity
  8
0
  6
Continuous
 62
     2
100
AcDbLine
 10
3.385353629299999
 20
3.604785410199999
 30
0.0
 11
2.1050751312
 21
3.604785410199999
 31
0.0
  0
LINE
  5
238
330
234
100
AcDbEntity
  8
0
  6
Continuous
 62
     2
100
AcDbLine
 10
1.4203536293
 20
4.524785410199999
 30
0.0
 11
2.3550751312
 21
4.524785410199999
 31
0.0
  0
LINE
  5
239
330
234
100
AcDbEntity
  8
0
  6
Continuous
 62
     2
100
AcDbLine
 10
2.2300751312
 20
3.604785410199999
 30
0.0
 11
2.2300751312
 21
3.9593498697
 31
0.0
  0
LINE
  5
23A
330
234
100
AcDbEntity
  8
0
  6
Continuous
 62
     2
100
AcDbLine
 10
2.2300751312
 20
4.524785410199999
 30
0.0
 11
2.2300751312
 21
4.1593498697
 31
0.0
  0
LWPOLYLINE
  5
23B
330
234
100
AcDbEntity
  8
0
  6
Continuous
 62
     2
100
AcDbPolyline
 90
        4
 70
     0
 43
0.0
 10
2.1988251312
 20
3.792285410199999
 10
2.2300751312
 20
3.604785410199999
 10
2.2613251312
 20
3.792285410199999
 10
2.1988251312
 20
3.792285410199999
  0
LWPOLYLINE
  5
241
330
234
100
AcDbEntity
  8
0
  6
Continuous
 62
     2
100
AcDbPolyline
 90
        4
 70
     0
 43
0.0
 10
2.2613251312
 20
4.337285410199999
 10
2.2300751312
 20
4.524785410199999
 10
2.1988251312
 20
4.337285410199999
 10
2.2613251312
 20
4.337285410199999
  0
ENDBLK
  5
247
330
234
100
AcDbEntity
  8
0
100
AcDbBlockEnd
  0
ENDSEC
  0
SECTION
  2
ENTITIES
  0
TEXT
  5
25A
330
1E
100
AcDbEntity
  8
0
  6
Continuous
 62
     2
100
AcDbText
 10
1.0625
 20
9.6090625
 30
0.0
 40
0.15625
  1
 
 41
0.8
 72
     5
 11
1.1875
 21
9.6090625
 31
0.0
100
AcDbText
  0
TEXT
  5
260
330
1E
100
AcDbEntity
  8
0
  6
Continuous
 62
     2
100
AcDbText
 10
1.0625
 20
8.834687499999999
 30
0.0
 40
0.15625
  1
 
 41
0.8
 72
     5
 11
1.1875
 21
8.834687499999999
 31
0.0
100
AcDbText
  0
LINE
  5
2D4
330
1E
100
AcDbEntity
  8
0
  6
Continuous
 62
     7
100
AcDbLine
 10
3.841744936459999
 20
5.33184711287
 30
0.0
 11
3.646199602779999
 21
5.154049411889999
 31
0.0
  0
LINE
  5
2D5
330
1E
100
AcDbEntity
  8
0
  6
Continuous
 62
     7
100
AcDbLine
 10
3.649563269359999
 20
5.15034998665
 30
0.0
 11
3.845108603039999
 21
5.32814768763
 31
0.0
  0
LINE
  5
2D6
330
1E
100
AcDbEntity
  8
0
  6
Continuous
 62
     7
100
AcDbLine
 10
3.888836268569999
 20
4.97505515944
 30
0.0
 11
4.024414048469999
 21
4.97505515944
 31
0.0
  0
LINE
  5
2D7
330
1E
100
AcDbEntity
  8
0
  6
Continuous
 62
     7
100
AcDbLine
 10
4.022837554519999
 20
4.980055159439999
 30
0.0
 11
3.888836268569999
 21
4.980055159439999
 31
0.0
  0
LINE
  5
2D8
330
1E
100
AcDbEntity
  8
0
  6
Continuous
 62
     7
100
AcDbLine
 10
4.045836268569999
 20
4.990055159439999
 30
0.0
 11
4.095836268569999
 21
4.990055159439999
 31
0.0
  0
LINE
  5
2D9
330
1E
100
AcDbEntity
  8
0
  6
Continuous
 62
     7
100
AcDbLine
 10
3.913836268569999
 20
4.995055159439999
 30
0.0
 11
4.223836268569999
 21
4.995055159439999
 31
0.0
  0
LINE
  5
2DB
330
1E
100
AcDbEntity
  8
0
  6
Continuous
 62
     7
100
AcDbLine
 10
4.223836268569999
 20
5.01505515944
 30
0.0
 11
3.93216289205
 21
5.01505515944
 31
0.0
  0
LINE
  5
2DC
330
1E
100
AcDbEntity
  8
0
  6
Continuous
 62
     7
100
AcDbLine
 10
4.095836268569999
 20
5.02005515944
 30
0.0
 11
4.045836268569999
 21
5.02005515944
 31
0.0
  0
LINE
  5
2DD
330
1E
100
AcDbEntity
  8
0
  6
Continuous
 62
     7
100
AcDbLine
 10
3.977836268569999
 20
5.030055159439999
 30
0.0
 11
4.022837554519999
 21
5.030055159439999
 31
0.0
  0
LINE
  5
2DE
330
1E
100
AcDbEntity
  8
0
  6
Continuous
 62
     7
100
AcDbLine
 10
3.822017935669999
 20
5.18551220478
 30
0.0
 11
3.710109267779999
 21
5.083760332229999
 31
0.0
  0
LINE
  5
2DF
330
1E
100
AcDbEntity
  8
0
  6
Continuous
 62
     7
100
AcDbLine
 10
3.713472934359999
 20
5.08006090698
 30
0.0
 11
3.825381602249999
 21
5.18181277954
 31
0.0
  0
LINE
  5
2E0
330
1E
100
AcDbEntity
  8
0
  6
Continuous
 62
     7
100
AcDbLine
 10
4.024414048469999
 20
5.035055159439999
 30
0.0
 11
3.977836268569999
 21
5.035055159439999
 31
0.0
  0
LINE
  5
2E1
330
1E
100
AcDbEntity
  8
0
  6
Continuous
 62
     7
100
AcDbLine
 10
3.858836268569999
 20
5.16701507856
 30
0.0
 11
3.858836268569999
 21
5.00505515944
 31
0.0
  0
LINE
  5
2E2
330
1E
100
AcDbEntity
  8
0
  6
Continuous
 62
     7
100
AcDbLine
 10
3.863836268569999
 20
5.00505515944
 30
0.0
 11
3.863836268569999
 21
5.16701507856
 31
0.0
  0
LINE
  5
2E3
330
1E
100
AcDbEntity
  8
0
  6
Continuous
 62
     7
100
AcDbLine
 10
4.022837554519999
 20
5.030055159439999
 30
0.0
 11
4.044259774619999
 21
5.01505515944
 31
0.0
  0
LINE
  5
2E4
330
1E
100
AcDbEntity
  8
0
  6
Continuous
 62
     7
100
AcDbLine
 10
3.902941800719999
 20
5.1195794967
 30
0.0
 11
3.913836268569999
 21
4.995055159439999
 31
0.0
  0
LINE
  5
2E6
330
1E
100
AcDbEntity
  8
0
  6
Continuous
 62
     7
100
AcDbLine
 10
3.922865694689999
 20
5.12132261155
 30
0.0
 11
3.902941800719999
 21
5.1195794967
 31
0.0
  0
LINE
  5
2E7
330
1E
100
AcDbEntity
  8
0
  6
Continuous
 62
     7
100
AcDbLine
 10
4.045836268569999
 20
5.02005515944
 30
0.0
 11
4.024414048469999
 21
5.035055159439999
 31
0.0
  0
LINE
  5
2E8
330
1E
100
AcDbEntity
  8
0
  6
Continuous
 62
     7
100
AcDbLine
 10
3.93216289205
 20
5.01505515944
 30
0.0
 11
3.922865694689999
 21
5.12132261155
 31
0.0
  0
LINE
  5
2E9
330
1E
100
AcDbEntity
  8
0
  6
Continuous
 62
     7
100
AcDbLine
 10
3.953836268569999
 20
5.280055159439999
 30
0.0
 11
3.953836268569999
 21
5.054055159439999
 31
0.0
  0
LINE
  5
2EA
330
1E
100
AcDbEntity
  8
0
  6
Continuous
 62
     7
100
AcDbLine
 10
3.958836268569999
 20
5.054055159439999
 30
0.0
 11
3.958836268569999
 21
5.280055159439999
 31
0.0
  0
LINE
  5
2EB
330
1E
100
AcDbEntity
  8
0
  6
Continuous
 62
     7
100
AcDbLine
 10
4.09981331054
 20
5.04130515944
 30
0.0
 11
4.114968755109999
 21
5.01505515944
 31
0.0
  0
LINE
  5
2EC
330
1E
100
AcDbEntity
  8
0
  6
Continuous
 62
     7
100
AcDbLine
 10
4.143836268569999
 20
5.01505515944
 30
0.0
 11
4.121463945639999
 21
5.053805159439999
 31
0.0
  0
LINE
  5
2ED
330
1E
100
AcDbEntity
  8
0
  6
Continuous
 62
     7
100
AcDbLine
 10
4.095836268569999
 20
4.990055159439999
 30
0.0
 11
4.095836268569999
 21
4.995055159439999
 31
0.0
  0
LINE
  5
2EE
330
1E
100
AcDbEntity
  8
0
  6
Continuous
 62
     7
100
AcDbLine
 10
4.095836268569999
 20
5.01505515944
 30
0.0
 11
4.095836268569999
 21
5.02005515944
 31
0.0
  0
LINE
  5
2F0
330
1E
100
AcDbEntity
  8
0
  6
Continuous
 62
     7
100
AcDbLine
 10
4.17981331054
 20
5.04130515944
 30
0.0
 11
4.194968755109999
 21
5.01505515944
 31
0.0
  0
LINE
  5
2F1
330
1E
100
AcDbEntity
  8
0
  6
Continuous
 62
     7
100
AcDbLine
 10
4.044259774619999
 20
4.995055159439999
 30
0.0
 11
4.022837554519999
 21
4.980055159439999
 31
0.0
  0
LINE
  5
2F2
330
1E
100
AcDbEntity
  8
0
  6
Continuous
 62
     7
100
AcDbLine
 10
4.223836268569999
 20
5.01505515944
 30
0.0
 11
4.201463945639999
 21
5.053805159439999
 31
0.0
  0
LINE
  5
2F3
330
1E
100
AcDbEntity
  8
0
  6
Continuous
 62
     7
100
AcDbLine
 10
4.024414048469999
 20
4.97505515944
 30
0.0
 11
4.045836268569999
 21
4.990055159439999
 31
0.0
  0
LINE
  5
2F4
330
1E
100
AcDbEntity
  8
0
  6
Continuous
 62
     7
100
AcDbLine
 10
4.114968755109999
 20
4.995055159439999
 30
0.0
 11
4.09981331054
 21
4.96880515944
 31
0.0
  0
LINE
  5
2F5
330
1E
100
AcDbEntity
  8
0
  6
Continuous
 62
     7
100
AcDbLine
 10
4.121463945639999
 20
4.95630515944
 30
0.0
 11
4.143836268569999
 21
4.995055159439999
 31
0.0
  0
LINE
  5
2F6
330
1E
100
AcDbEntity
  8
0
  6
Continuous
 62
     7
100
AcDbLine
 10
4.194968755109999
 20
4.995055159439999
 30
0.0
 11
4.17981331054
 21
4.96880515944
 31
0.0
  0
LINE
  5
2F7
330
1E
100
AcDbEntity
  8
0
  6
Continuous
 62
     7
100
AcDbLine
 10
4.201463945639999
 20
4.95630515944
 30
0.0
 11
4.223836268569999
 21
4.995055159439999
 31
0.0
  0
ARC
  5
319
330
1E
100
AcDbEntity
  8
0
  6
Continuous
 62
     7
100
AcDbCircle
 10
4.11063862809
 20
4.962555159439999
 30
0.0
 40
0.0125
100
AcDbArc
 50
150.0
 51
330.0
  0
ARC
  5
31A
330
1E
100
AcDbEntity
  8
0
  6
Continuous
 62
     7
100
AcDbCircle
 10
4.11063862809
 20
5.047555159439999
 30
0.0
 40
0.0125
100
AcDbArc
 50
30.0
 51
210.0
  0
ARC
  5
31B
330
1E
100
AcDbEntity
  8
0
  6
Continuous
 62
     7
100
AcDbCircle
 10
4.223836268569999
 20
5.00505515944
 30
0.0
 40
0.01
100
AcDbArc
 50
270.0
 51
90.0
  0
ARC
  5
31C
330
1E
100
AcDbEntity
  8
0
  6
Continuous
 62
     7
100
AcDbCircle
 10
4.190638628089999
 20
4.962555159439999
 30
0.0
 40
0.0125
100
AcDbArc
 50
150.0
 51
330.0
  0
ARC
  5
31D
330
1E
100
AcDbEntity
  8
0
  6
Continuous
 62
     7
100
AcDbCircle
 10
4.190638628089999
 20
5.047555159439999
 30
0.0
 40
0.0125
100
AcDbArc
 50
30.0
 51
210.0
  0
ARC
  5
31E
330
1E
100
AcDbEntity
  8
0
  6
Continuous
 62
     7
100
AcDbCircle
 10
3.977836268569999
 20
5.054055159439999
 30
0.0
 40
0.024
100
AcDbArc
 50
180.0
 51
270.0
  0
ARC
  5
31F
330
1E
100
AcDbEntity
  8
0
  6
Continuous
 62
     7
100
AcDbCircle
 10
3.888836268569999
 20
5.280055159439999
 30
0.0
 40
0.065
100
AcDbArc
 50
0.0
 51
132.2783755636999
  0
ARC
  5
320
330
1E
100
AcDbEntity
  8
0
  6
Continuous
 62
     7
100
AcDbCircle
 10
3.679836268569999
 20
5.117055159439999
 30
0.0
 40
0.045
100
AcDbArc
 50
132.2783755636999
 51
312.2783755636999
  0
ARC
  5
321
330
1E
100
AcDbEntity
  8
0
  6
Continuous
 62
     7
100
AcDbCircle
 10
3.838836268569999
 20
5.16701507856
 30
0.0
 40
0.025
100
AcDbArc
 50
0.0
 51
132.2783755636999
  0
ARC
  5
322
330
1E
100
AcDbEntity
  8
0
  6
Continuous
 62
     7
100
AcDbCircle
 10
3.888836268569999
 20
5.00505515944
 30
0.0
 40
0.025
100
AcDbArc
 50
180.0
 51
270.0
  0
ARC
  5
323
330
1E
100
AcDbEntity
  8
0
  6
Continuous
 62
     7
100
AcDbCircle
 10
3.888836268569999
 20
5.00505515944
 30
0.0
 40
0.03
100
AcDbArc
 50
180.0
 51
270.0
  0
ARC
  5
324
330
1E
100
AcDbEntity
  8
0
  6
Continuous
 62
     7
100
AcDbCircle
 10
3.838836268569999
 20
5.16701507856
 30
0.0
 40
0.02
100
AcDbArc
 50
0.0
 51
132.2783755636999
  0
ARC
  5
325
330
1E
100
AcDbEntity
  8
0
  6
Continuous
 62
     7
100
AcDbCircle
 10
3.679836268569999
 20
5.117055159439999
 30
0.0
 40
0.05
100
AcDbArc
 50
132.2783755636999
 51
312.2783755636999
  0
ARC
  5
326
330
1E
100
AcDbEntity
  8
0
  6
Continuous
 62
     7
100
AcDbCircle
 10
3.888836268569999
 20
5.280055159439999
 30
0.0
 40
0.07
100
AcDbArc
 50
0.0
 51
132.2783755636999
  0
ARC
  5
327
330
1E
100
AcDbEntity
  8
0
  6
Continuous
 62
     7
100
AcDbCircle
 10
3.977836268569999
 20
5.054055159439999
 30
0.0
 40
0.019
100
AcDbArc
 50
180.0
 51
270.0
  0
CIRCLE
  5
328
330
1E
100
AcDbEntity
  8
0
  6
Continuous
 62
     4
100
AcDbCircle
 10
3.692823542409999
 20
5.1797608874
 30
0.0
 40
0.00333595963
  0
CIRCLE
  5
329
330
1E
100
AcDbEntity
  8
0
  6
Continuous
 62
     4
100
AcDbCircle
 10
3.661317257039999
 20
5.15047857511
 30
0.0
 40
0.0033564888
  0
CIRCLE
  5
32A
330
1E
100
AcDbEntity
  8
0
  6
Continuous
 62
     4
100
AcDbCircle
 10
3.669842487199999
 20
5.161598440539999
 30
0.0
 40
0.0033564888
  0
CIRCLE
  5
32B
330
1E
100
AcDbEntity
  8
0
  6
Continuous
 62
     4
100
AcDbCircle
 10
3.648344080709999
 20
5.135281425699999
 30
0.0
 40
0.00296529745
  0
CIRCLE
  5
32C
330
1E
100
AcDbEntity
  8
0
  6
Continuous
 62
     4
100
AcDbCircle
 10
3.690599569329999
 20
5.077087463309999
 30
0.0
 40
0.00296529745
  0
CIRCLE
  5
32D
330
1E
100
AcDbEntity
  8
0
  6
Continuous
 62
     4
100
AcDbCircle
 10
3.701348772569999
 20
5.090060639639999
 30
0.0
 40
0.00333595963
  0
CIRCLE
  5
32E
330
1E
100
AcDbEntity
  8
0
  6
Continuous
 62
     4
100
AcDbCircle
 10
3.716545921979999
 20
5.099327194159999
 30
0.0
 40
0.00333595963
  0
CIRCLE
  5
32F
330
1E
100
AcDbEntity
  8
0
  6
Continuous
 62
     4
100
AcDbCircle
 10
3.725071152139999
 20
5.11118838394
 30
0.0
 40
0.00372510881
  0
CIRCLE
  5
330
330
1E
100
AcDbEntity
  8
0
  6
Continuous
 62
     4
100
AcDbCircle
 10
3.734708368849999
 20
5.121196262829999
 30
0.0
 40
0.00341733645
  0
CIRCLE
  5
331
330
1E
100
AcDbEntity
  8
0
  6
Continuous
 62
     4
100
AcDbCircle
 10
3.747681545169999
 20
5.130092155169999
 30
0.0
 40
0.00414412917
  0
CIRCLE
  5
332
330
1E
100
AcDbEntity
  8
0
  6
Continuous
 62
     4
100
AcDbCircle
 10
3.757689424059999
 20
5.14121202059
 30
0.0
 40
0.00446336371
  0
CIRCLE
  5
333
330
1E
100
AcDbEntity
  8
0
  6
Continuous
 62
     4
100
AcDbCircle
 10
3.763249356769999
 20
5.15492652128
 30
0.0
 40
0.00296529745
  0
CIRCLE
  5
334
330
1E
100
AcDbEntity
  8
0
  6
Continuous
 62
     4
100
AcDbCircle
 10
3.779558492719999
 20
5.15826248091
 30
0.0
 40
0.00296529745
  0
CIRCLE
  5
335
330
1E
100
AcDbEntity
  8
0
  6
Continuous
 62
     4
100
AcDbCircle
 10
3.789195709429999
 20
5.170494332879999
 30
0.0
 40
0.00378002739
  0
CIRCLE
  5
336
330
1E
100
AcDbEntity
  8
0
  6
Continuous
 62
     4
100
AcDbCircle
 10
3.80253954794
 20
5.178648900849999
 30
0.0
 40
0.00386982678
  0
CIRCLE
  5
337
330
1E
100
AcDbEntity
  8
0
  6
Continuous
 62
     4
100
AcDbCircle
 10
3.813288751179999
 20
5.192734063719999
 30
0.0
 40
0.00483284356
  0
CIRCLE
  5
338
330
1E
100
AcDbEntity
  8
0
  6
Continuous
 62
     4
100
AcDbCircle
 10
3.831080535859999
 20
5.20718988878
 30
0.0
 40
0.00524195483
  0
CIRCLE
  5
339
330
1E
100
AcDbEntity
  8
0
  6
Continuous
 62
     4
100
AcDbCircle
 10
3.891498471329999
 20
4.9922058239
 30
0.0
 40
0.00471775935
  0
CIRCLE
  5
33A
330
1E
100
AcDbEntity
  8
0
  6
Continuous
 62
     4
100
AcDbCircle
 10
3.883714565539999
 20
5.00443767587
 30
0.0
 40
0.00414412917
  0
CIRCLE
  5
33B
330
1E
100
AcDbEntity
  8
0
  6
Continuous
 62
     4
100
AcDbCircle
 10
3.875930659739999
 20
5.02148813619
 30
0.0
 40
0.00444794617
  0
CIRCLE
  5
33C
330
1E
100
AcDbEntity
  8
0
  6
Continuous
 62
     4
100
AcDbCircle
 10
3.874077348829999
 20
5.045951840119999
 30
0.0
 40
0.0040940976
  0
CIRCLE
  5
33D
330
1E
100
AcDbEntity
  8
0
  6
Continuous
 62
     4
100
AcDbCircle
 10
3.877783970639999
 20
5.06226097608
 30
0.0
 40
0.00370662181
  0
CIRCLE
  5
33E
330
1E
100
AcDbEntity
  8
0
  6
Continuous
 62
     4
100
AcDbCircle
 10
3.875930659739999
 20
5.08338872038
 30
0.0
 40
0.00481860835
  0
CIRCLE
  5
33F
330
1E
100
AcDbEntity
  8
0
  6
Continuous
 62
     4
100
AcDbCircle
 10
3.874818673199999
 20
5.09710322107
 30
0.0
 40
0.00378002739
  0
CIRCLE
  5
340
330
1E
100
AcDbEntity
  8
0
  6
Continuous
 62
     4
100
AcDbCircle
 10
3.875189335379999
 20
5.1100763974
 30
0.0
 40
0.00372510881
  0
CIRCLE
  5
341
330
1E
100
AcDbEntity
  8
0
  6
Continuous
 62
     4
100
AcDbCircle
 10
3.871112051389999
 20
5.130092155169999
 30
0.0
 40
0.0040940976
  0
CIRCLE
  5
342
330
1E
100
AcDbEntity
  8
0
  6
Continuous
 62
     4
100
AcDbCircle
 10
3.877042646279999
 20
5.15047857511
 30
0.0
 40
0.00407728399
  0
CIRCLE
  5
343
330
1E
100
AcDbEntity
  8
0
  6
Continuous
 62
     4
100
AcDbCircle
 10
3.874818673199999
 20
5.16752903543
 30
0.0
 40
0.0059421668
  0
CIRCLE
  5
344
330
1E
100
AcDbEntity
  8
0
  6
Continuous
 62
     4
100
AcDbCircle
 10
3.876671984099999
 20
5.187915455369999
 30
0.0
 40
0.00518927053
  0
CIRCLE
  5
345
330
1E
100
AcDbEntity
  8
0
  6
Continuous
 62
     4
100
AcDbCircle
 10
3.856656226339999
 20
5.20348326697
 30
0.0
 40
0.00621343038
  0
CIRCLE
  5
346
330
1E
100
AcDbEntity
  8
0
  6
Continuous
 62
     4
100
AcDbCircle
 10
4.013202934699999
 20
4.988758484249999
 30
0.0
 40
0.00386150243
  0
CIRCLE
  5
347
330
1E
100
AcDbEntity
  8
0
  6
Continuous
 62
     4
100
AcDbCircle
 10
3.988328810899999
 20
4.98726603682
 30
0.0
 40
0.00314635544
  0
CIRCLE
  5
348
330
1E
100
AcDbEntity
  8
0
  6
Continuous
 62
     4
100
AcDbCircle
 10
3.961464757199999
 20
4.988012260539999
 30
0.0
 40
0.00283608647
  0
CIRCLE
  5
349
330
1E
100
AcDbEntity
  8
0
  6
Continuous
 62
     4
100
AcDbCircle
 10
3.935098185979999
 20
4.98676855435
 30
0.0
 40
0.00388546235
  0
CIRCLE
  5
34A
330
1E
100
AcDbEntity
  8
0
  6
Continuous
 62
     4
100
AcDbCircle
 10
3.913706439509999
 20
4.988509743009999
 30
0.0
 40
0.00362172709
  0
CIRCLE
  5
34B
330
1E
100
AcDbEntity
  8
0
  6
Continuous
 62
     4
100
AcDbCircle
 10
4.026883702789999
 20
5.02059736271
 30
0.0
 40
0.0019899299
  0
CIRCLE
  5
34C
330
1E
100
AcDbEntity
  8
0
  6
Continuous
 62
     4
100
AcDbCircle
 10
3.985095174809999
 20
5.02308477509
 30
0.0
 40
0.00259693477
  0
CIRCLE
  5
34D
330
1E
100
AcDbEntity
  8
0
  6
Continuous
 62
     4
100
AcDbCircle
 10
4.001512096519999
 20
5.025074704999999
 30
0.0
 40
0.00273615362
  0
CIRCLE
  5
34E
330
1E
100
AcDbEntity
  8
0
  6
Continuous
 62
     4
100
AcDbCircle
 10
4.017680276979999
 20
5.02432848128
 30
0.0
 40
0.0024998185
  0
CIRCLE
  5
34F
330
1E
100
AcDbEntity
  8
0
  6
Continuous
 62
     4
100
AcDbCircle
 10
3.94952517778
 20
5.021841068899999
 30
0.0
 40
0.00256094779
  0
CIRCLE
  5
350
330
1E
100
AcDbEntity
  8
0
  6
Continuous
 62
     4
100
AcDbCircle
 10
3.965195875769999
 20
5.025820928709999
 30
0.0
 40
0.00253667285
  0
CIRCLE
  5
351
330
1E
100
AcDbEntity
  8
0
  6
Continuous
 62
     4
100
AcDbCircle
 10
3.945545317969999
 20
5.034278130799999
 30
0.0
 40
0.00380500928
  0
CIRCLE
  5
352
330
1E
100
AcDbEntity
  8
0
  6
Continuous
 62
     4
100
AcDbCircle
 10
3.941316716929999
 20
5.04795889889
 30
0.0
 40
0.00386150243
  0
CIRCLE
  5
353
330
1E
100
AcDbEntity
  8
0
  6
Continuous
 62
     4
100
AcDbCircle
 10
3.938829304549999
 20
5.07059435154
 30
0.0
 40
0.00472608352
  0
CIRCLE
  5
354
330
1E
100
AcDbEntity
  8
0
  6
Continuous
 62
     4
100
AcDbCircle
 10
3.939326787019999
 20
5.08228518973
 30
0.0
 40
0.00298489486
  0
CIRCLE
  5
355
330
1E
100
AcDbEntity
  8
0
  6
Continuous
 62
     4
100
AcDbCircle
 10
3.938083080829999
 20
5.095468475339999
 30
0.0
 40
0.00273615362
  0
CIRCLE
  5
356
330
1E
100
AcDbEntity
  8
0
  6
Continuous
 62
     4
100
AcDbCircle
 10
3.944052870539999
 20
5.10342819496
 30
0.0
 40
0.00373940075
  0
CIRCLE
  5
357
330
1E
100
AcDbEntity
  8
0
  6
Continuous
 62
     4
100
AcDbCircle
 10
3.937834339599999
 20
5.114124068189999
 30
0.0
 40
0.00351773232
  0
CIRCLE
  5
358
330
1E
100
AcDbEntity
  8
0
  6
Continuous
 62
     4
100
AcDbCircle
 10
3.937834339599999
 20
5.1273073538
 30
0.0
 40
0.00473262482
  0
CIRCLE
  5
359
330
1E
100
AcDbEntity
  8
0
  6
Continuous
 62
     4
100
AcDbCircle
 10
3.900523153899999
 20
5.00169302863
 30
0.0
 40
0.00478463324
  0
CIRCLE
  5
35A
330
1E
100
AcDbEntity
  8
0
  6
Continuous
 62
     4
100
AcDbCircle
 10
3.890573504379999
 20
5.019353656519999
 30
0.0
 40
0.00622350379
  0
CIRCLE
  5
35B
330
1E
100
AcDbEntity
  8
0
  6
Continuous
 62
     4
100
AcDbCircle
 10
3.898533223999999
 20
5.03552183699
 30
0.0
 40
0.00572104847
  0
CIRCLE
  5
35C
330
1E
100
AcDbEntity
  8
0
  6
Continuous
 62
     4
100
AcDbCircle
 10
3.756206775329999
 20
5.23832551197
 30
0.0
 40
0.00372510881
  0
CIRCLE
  5
35D
330
1E
100
AcDbEntity
  8
0
  6
Continuous
 62
     4
100
AcDbCircle
 10
3.741380288099999
 20
5.22572299782
 30
0.0
 40
0.00298837404
  0
CIRCLE
  5
35E
330
1E
100
AcDbEntity
  8
0
  6
Continuous
 62
     4
100
AcDbCircle
 10
3.713580624539999
 20
5.19866465862
 30
0.0
 40
0.0035164102
  0
CIRCLE
  5
35F
330
1E
100
AcDbEntity
  8
0
  6
Continuous
 62
     4
100
AcDbCircle
 10
3.887837350759999
 20
5.043232815369999
 30
0.0
 40
0.00338324661
  0
CIRCLE
  5
360
330
1E
100
AcDbEntity
  8
0
  6
Continuous
 62
     4
100
AcDbCircle
 10
3.677899745919999
 20
5.147455394079999
 30
0.0
 40
0.0050733457
  0
CIRCLE
  5
361
330
1E
100
AcDbEntity
  8
0
  6
Continuous
 62
     4
100
AcDbCircle
 10
3.662229047919999
 20
5.136262038369999
 30
0.0
 40
0.00397985981
  0
CIRCLE
  5
362
330
1E
100
AcDbEntity
  8
0
  6
Continuous
 62
     4
100
AcDbCircle
 10
3.651533174689999
 20
5.120342599139999
 30
0.0
 40
0.0039876254
  0
CIRCLE
  5
363
330
1E
100
AcDbEntity
  8
0
  6
Continuous
 62
     4
100
AcDbCircle
 10
3.668696320109999
 20
5.11511903314
 30
0.0
 40
0.00582288309
  0
CIRCLE
  5
364
330
1E
100
AcDbEntity
  8
0
  6
Continuous
 62
     4
100
AcDbCircle
 10
3.671432473729999
 20
5.09472225163
 30
0.0
 40
0.00410234559
  0
CIRCLE
  5
365
330
1E
100
AcDbEntity
  8
0
  6
Continuous
 62
     4
100
AcDbCircle
 10
3.650786950979999
 20
5.09397602791
 30
0.0
 40
0.00380500928
  0
CIRCLE
  5
366
330
1E
100
AcDbEntity
  8
0
  6
Continuous
 62
     4
100
AcDbCircle
 10
3.709241141899999
 20
5.182279167389999
 30
0.0
 40
0.00422860105
  0
CIRCLE
  5
367
330
1E
100
AcDbEntity
  8
0
  6
Continuous
 62
     4
100
AcDbCircle
 10
3.699788974859999
 20
5.171832035399999
 30
0.0
 40
0.00324318895
  0
CIRCLE
  5
368
330
1E
100
AcDbEntity
  8
0
  6
Continuous
 62
     4
100
AcDbCircle
 10
3.773167640059999
 20
5.181532943679999
 30
0.0
 40
0.00440770597
  0
CIRCLE
  5
369
330
1E
100
AcDbEntity
  8
0
  6
Continuous
 62
     4
100
AcDbCircle
 10
3.791325750429999
 20
5.18576154472
 30
0.0
 40
0.00348237733
  0
CIRCLE
  5
36A
330
1E
100
AcDbEntity
  8
0
  6
Continuous
 62
     4
100
AcDbCircle
 10
3.744562397689999
 20
5.18377161482
 30
0.0
 40
0.00498103941
  0
CIRCLE
  5
36B
330
1E
100
AcDbEntity
  8
0
  6
Continuous
 62
     4
100
AcDbCircle
 10
3.744811138929999
 20
5.169842105489999
 30
0.0
 40
0.00499963701
  0
CIRCLE
  5
36C
330
1E
100
AcDbEntity
  8
0
  6
Continuous
 62
     4
100
AcDbCircle
 10
3.768939039009999
 20
5.16760343435
 30
0.0
 40
0.00373111857
  0
CIRCLE
  5
36D
330
1E
100
AcDbEntity
  8
0
  6
Continuous
 62
     4
100
AcDbCircle
 10
3.759735613209999
 20
5.178299307579999
 30
0.0
 40
0.00423591065
  0
CIRCLE
  5
36E
330
1E
100
AcDbEntity
  8
0
  6
Continuous
 62
     4
100
AcDbCircle
 10
3.747547292549999
 20
5.15665881988
 30
0.0
 40
0.00425776416
  0
CIRCLE
  5
36F
330
1E
100
AcDbEntity
  8
0
  6
Continuous
 62
     4
100
AcDbCircle
 10
3.735607713129999
 20
5.1397444157
 30
0.0
 40
0.00601110363
  0
CIRCLE
  5
370
330
1E
100
AcDbEntity
  8
0
  6
Continuous
 62
     4
100
AcDbCircle
 10
3.713967225419999
 20
5.123078752759999
 30
0.0
 40
0.00373940075
  0
CIRCLE
  5
371
330
1E
100
AcDbEntity
  8
0
  6
Continuous
 62
     4
100
AcDbCircle
 10
3.707499953239999
 20
5.110392949619999
 30
0.0
 40
0.00356143254
  0
CIRCLE
  5
372
330
1E
100
AcDbEntity
  8
0
  6
Continuous
 62
     4
100
AcDbCircle
 10
3.724414357419999
 20
5.18053797873
 30
0.0
 40
0.00440770597
  0
CIRCLE
  5
373
330
1E
100
AcDbEntity
  8
0
  6
Continuous
 62
     4
100
AcDbCircle
 10
3.724414357419999
 20
5.16810091683
 30
0.0
 40
0.00425776416
  0
CIRCLE
  5
374
330
1E
100
AcDbEntity
  8
0
  6
Continuous
 62
     4
100
AcDbCircle
 10
3.684367018099999
 20
5.163374833309999
 30
0.0
 40
0.00373111857
  0
CIRCLE
  5
375
330
1E
100
AcDbEntity
  8
0
  6
Continuous
 62
     4
100
AcDbCircle
 10
3.698545268669999
 20
5.147704135309999
 30
0.0
 40
0.00349124964
  0
CIRCLE
  5
376
330
1E
100
AcDbEntity
  8
0
  6
Continuous
 62
     4
100
AcDbCircle
 10
3.681382123249999
 20
5.1377544858
 30
0.0
 40
0.00299524114
  0
CIRCLE
  5
377
330
1E
100
AcDbEntity
  8
0
  6
Continuous
 62
     4
100
AcDbCircle
 10
3.702525128479999
 20
5.132033437319999
 30
0.0
 40
0.00298489486
  0
CIRCLE
  5
378
330
1E
100
AcDbEntity
  8
0
  6
Continuous
 62
     4
100
AcDbCircle
 10
3.685361983059999
 20
5.12481994142
 30
0.0
 40
0.00302606776
  0
CIRCLE
  5
379
330
1E
100
AcDbEntity
  8
0
  6
Continuous
 62
     4
100
AcDbCircle
 10
3.687351912959999
 20
5.11536777438
 30
0.0
 40
0.00373940075
  0
CIRCLE
  5
37A
330
1E
100
AcDbEntity
  8
0
  6
Continuous
 62
     4
100
AcDbCircle
 10
3.686854430479999
 20
5.101438265049999
 30
0.0
 40
0.00273615362
  0
CIRCLE
  5
37B
330
1E
100
AcDbEntity
  8
0
  6
Continuous
 62
     4
100
AcDbCircle
 10
3.702276387239999
 20
5.10019455886
 30
0.0
 40
0.00348237733
  0
CIRCLE
  5
37C
330
1E
100
AcDbEntity
  8
0
  6
Continuous
 62
     4
100
AcDbCircle
 10
3.686356948009999
 20
5.08875246192
 30
0.0
 40
0.00223867114
  0
CIRCLE
  5
37D
330
1E
100
AcDbEntity
  8
0
  6
Continuous
 62
     4
100
AcDbCircle
 10
3.715459672849999
 20
5.15641007864
 30
0.0
 40
0.00373111857
  0
CIRCLE
  5
37E
330
1E
100
AcDbEntity
  8
0
  6
Continuous
 62
     4
100
AcDbCircle
 10
3.715708414089999
 20
5.14422175798
 30
0.0
 40
0.00380500928
  0
CIRCLE
  5
37F
330
1E
100
AcDbEntity
  8
0
  6
Continuous
 62
     4
100
AcDbCircle
 10
3.726653028559999
 20
5.13054098989
 30
0.0
 40
0.00373940075
  0
CIRCLE
  5
380
330
1E
100
AcDbEntity
  8
0
  6
Continuous
 62
     4
100
AcDbCircle
 10
3.731130370839999
 20
5.154171407499999
 30
0.0
 40
0.00380500928
  0
CIRCLE
  5
381
330
1E
100
AcDbEntity
  8
0
  6
Continuous
 62
     4
100
AcDbCircle
 10
3.703768834669999
 20
5.159643714739999
 30
0.0
 40
0.00362172709
  0
CIRCLE
  5
382
330
1E
100
AcDbEntity
  8
0
  6
Continuous
 62
     4
100
AcDbCircle
 10
3.891319728099999
 20
5.297446360569999
 30
0.0
 40
0.00736626923
  0
CIRCLE
  5
383
330
1E
100
AcDbEntity
  8
0
  6
Continuous
 62
     4
100
AcDbCircle
 10
3.874156582679999
 20
5.28998412343
 30
0.0
 40
0.00561185812
  0
CIRCLE
  5
384
330
1E
100
AcDbEntity
  8
0
  6
Continuous
 62
     4
100
AcDbCircle
 10
3.731379112079999
 20
5.20416839633
 30
0.0
 40
0.00467342357
  0
CIRCLE
  5
385
330
1E
100
AcDbEntity
  8
0
  6
Continuous
 62
     4
100
AcDbCircle
 10
3.730632888369999
 20
5.193970005579999
 30
0.0
 40
0.00338324661
  0
CIRCLE
  5
386
330
1E
100
AcDbEntity
  8
0
  6
Continuous
 62
     4
100
AcDbCircle
 10
3.778888688529999
 20
5.24098209955
 30
0.0
 40
0.00448424644
  0
CIRCLE
  5
387
330
1E
100
AcDbEntity
  8
0
  6
Continuous
 62
     4
100
AcDbCircle
 10
3.766451626629999
 20
5.233022379939999
 30
0.0
 40
0.00373111857
  0
CIRCLE
  5
388
330
1E
100
AcDbEntity
  8
0
  6
Continuous
 62
     4
100
AcDbCircle
 10
3.752024634829999
 20
5.219092870609999
 30
0.0
 40
0.00401083195
  0
CIRCLE
  5
389
330
1E
100
AcDbEntity
  8
0
  6
Continuous
 62
     4
100
AcDbCircle
 10
3.768939039009999
 20
5.211381892229999
 30
0.0
 40
0.0039876254
  0
CIRCLE
  5
38A
330
1E
100
AcDbEntity
  8
0
  6
Continuous
 62
     4
100
AcDbCircle
 10
3.753517082259999
 20
5.20267594891
 30
0.0
 40
0.00397985981
  0
CIRCLE
  5
38B
330
1E
100
AcDbEntity
  8
0
  6
Continuous
 62
     4
100
AcDbCircle
 10
3.742572467789999
 20
5.21063566852
 30
0.0
 40
0.00425049214
  0
CIRCLE
  5
38C
330
1E
100
AcDbEntity
  8
0
  6
Continuous
 62
     4
100
AcDbCircle
 10
3.858734625919999
 20
5.311375869899999
 30
0.0
 40
0.00401083195
  0
CIRCLE
  5
38D
330
1E
100
AcDbEntity
  8
0
  6
Continuous
 62
     4
100
AcDbCircle
 10
3.846048822779999
 20
5.30043125543
 30
0.0
 40
0.00527073234
  0
CIRCLE
  5
38E
330
1E
100
AcDbEntity
  8
0
  6
Continuous
 62
     4
100
AcDbCircle
 10
3.860724555819999
 20
5.28500929867
 30
0.0
 40
0.00356143254
  0
CIRCLE
  5
38F
330
1E
100
AcDbEntity
  8
0
  6
Continuous
 62
     4
100
AcDbCircle
 10
3.841322739259999
 20
5.27555713163
 30
0.0
 40
0.00629762514
  0
CIRCLE
  5
390
330
1E
100
AcDbEntity
  8
0
  6
Continuous
 62
     4
100
AcDbCircle
 10
3.862465744489999
 20
5.252921678979999
 30
0.0
 40
0.00448424644
  0
CIRCLE
  5
391
330
1E
100
AcDbEntity
  8
0
  6
Continuous
 62
     4
100
AcDbCircle
 10
3.843561410399999
 20
5.23774846346
 30
0.0
 40
0.00411740012
  0
CIRCLE
  5
392
330
1E
100
AcDbEntity
  8
0
  6
Continuous
 62
     4
100
AcDbCircle
 10
3.865948121819999
 20
5.22904252013
 30
0.0
 40
0.00429393952
  0
CIRCLE
  5
393
330
1E
100
AcDbEntity
  8
0
  6
Continuous
 62
     4
100
AcDbCircle
 10
3.847292528969999
 20
5.22058531804
 30
0.0
 40
0.00512793199
  0
CIRCLE
  5
394
330
1E
100
AcDbEntity
  8
0
  6
Continuous
 62
     4
100
AcDbCircle
 10
3.817443580419999
 20
5.220834059279999
 30
0.0
 40
0.00425776416
  0
CIRCLE
  5
395
330
1E
100
AcDbEntity
  8
0
  6
Continuous
 62
     4
100
AcDbCircle
 10
3.80649896595
 20
5.20715329119
 30
0.0
 40
0.00535805024
  0
CIRCLE
  5
396
330
1E
100
AcDbEntity
  8
0
  6
Continuous
 62
     4
100
AcDbCircle
 10
3.779386171009999
 20
5.199939795289999
 30
0.0
 40
0.00423591065
  0
CIRCLE
  5
397
330
1E
100
AcDbEntity
  8
0
  6
Continuous
 62
     4
100
AcDbCircle
 10
3.782371065859999
 20
5.22605762527
 30
0.0
 40
0.00373940075
  0
CIRCLE
  5
398
330
1E
100
AcDbEntity
  8
0
  6
Continuous
 62
     4
100
AcDbCircle
 10
3.783366030819999
 20
5.21411804585
 30
0.0
 40
0.00248741238
  0
CIRCLE
  5
399
330
1E
100
AcDbEntity
  8
0
  6
Continuous
 62
     4
100
AcDbCircle
 10
3.828885677359999
 20
5.294958948189999
 30
0.0
 40
0.00597496957
  0
CIRCLE
  5
39A
330
1E
100
AcDbEntity
  8
0
  6
Continuous
 62
     4
100
AcDbCircle
 10
3.816946097939999
 20
5.28152692134
 30
0.0
 40
0.00599048229
  0
CIRCLE
  5
39B
330
1E
100
AcDbEntity
  8
0
  6
Continuous
 62
     4
100
AcDbCircle
 10
3.805752742229999
 20
5.267597412019999
 30
0.0
 40
0.00274743677
  0
CIRCLE
  5
39C
330
1E
100
AcDbEntity
  8
0
  6
Continuous
 62
     4
100
AcDbCircle
 10
3.792818197859999
 20
5.258393986209999
 30
0.0
 40
0.0039876254
  0
CIRCLE
  5
39D
330
1E
100
AcDbEntity
  8
0
  6
Continuous
 62
     4
100
AcDbCircle
 10
3.793066939099999
 20
5.240733358309999
 30
0.0
 40
0.00423591065
  0
CIRCLE
  5
39E
330
1E
100
AcDbEntity
  8
0
  6
Continuous
 62
     4
100
AcDbCircle
 10
3.793066939099999
 20
5.22381895413
 30
0.0
 40
0.00397985981
  0
CIRCLE
  5
39F
330
1E
100
AcDbEntity
  8
0
  6
Continuous
 62
     4
100
AcDbCircle
 10
3.824657076319999
 20
5.264612517159999
 30
0.0
 40
0.00498103941
  0
CIRCLE
  5
3A0
330
1E
100
AcDbEntity
  8
0
  6
Continuous
 62
     4
100
AcDbCircle
 10
3.813961203089999
 20
5.25142923155
 30
0.0
 40
0.00380500928
  0
CIRCLE
  5
3A1
330
1E
100
AcDbEntity
  8
0
  6
Continuous
 62
     4
100
AcDbCircle
 10
3.841571480499999
 20
5.25391664393
 30
0.0
 40
0.00522948505
  0
CIRCLE
  5
3A2
330
1E
100
AcDbEntity
  8
0
  6
Continuous
 62
     4
100
AcDbCircle
 10
3.919427487989999
 20
5.30590356266
 30
0.0
 40
0.00614345539
  0
CIRCLE
  5
3A3
330
1E
100
AcDbEntity
  8
0
  6
Continuous
 62
     4
100
AcDbCircle
 10
3.910721544659999
 20
5.28426307496
 30
0.0
 40
0.00598014495
  0
CIRCLE
  5
3A4
330
1E
100
AcDbEntity
  8
0
  6
Continuous
 62
     4
100
AcDbCircle
 10
3.884852455909999
 20
5.273567201729999
 30
0.0
 40
0.00596978971
  0
CIRCLE
  5
3A5
330
1E
100
AcDbEntity
  8
0
  6
Continuous
 62
     4
100
AcDbCircle
 10
3.862465744489999
 20
5.270582306869999
 30
0.0
 40
0.00373940075
  0
CIRCLE
  5
3A6
330
1E
100
AcDbEntity
  8
0
  6
Continuous
 62
     4
100
AcDbCircle
 10
3.827890712409999
 20
5.242474546979999
 30
0.0
 40
0.0039876254
  0
CIRCLE
  5
3A7
330
1E
100
AcDbEntity
  8
0
  6
Continuous
 62
     4
100
AcDbCircle
 10
3.901269377609999
 20
5.25715028002
 30
0.0
 40
0.00386150243
  0
CIRCLE
  5
3A8
330
1E
100
AcDbEntity
  8
0
  6
Continuous
 62
     4
100
AcDbCircle
 10
3.892065951809999
 20
5.24744937174
 30
0.0
 40
0.00376413796
  0
CIRCLE
  5
3A9
330
1E
100
AcDbEntity
  8
0
  6
Continuous
 62
     4
100
AcDbCircle
 10
3.892065951809999
 20
5.227798813939999
 30
0.0
 40
0.00425776416
  0
CIRCLE
  5
3AA
330
1E
100
AcDbEntity
  8
0
  6
Continuous
 62
     4
100
AcDbCircle
 10
3.878633924959999
 20
5.24695188926
 30
0.0
 40
0.00522948505
  0
CIRCLE
  5
3AB
330
1E
100
AcDbEntity
  8
0
  6
Continuous
 62
     4
100
AcDbCircle
 10
3.878882666199999
 20
5.211381892229999
 30
0.0
 40
0.00648637791
  0
CIRCLE
  5
3AC
330
1E
100
AcDbEntity
  8
0
  6
Continuous
 62
     4
100
AcDbCircle
 10
3.897040776569999
 20
5.19048762825
 30
0.0
 40
0.00291144155
  0
CIRCLE
  5
3AD
330
1E
100
AcDbEntity
  8
0
  6
Continuous
 62
     4
100
AcDbCircle
 10
3.895299587899999
 20
5.172578259109999
 30
0.0
 40
0.00572645334
  0
CIRCLE
  5
3AE
330
1E
100
AcDbEntity
  8
0
  6
Continuous
 62
     4
100
AcDbCircle
 10
3.894802105429999
 20
5.15566385493
 30
0.0
 40
0.0072134959
  0
CIRCLE
  5
3AF
330
1E
100
AcDbEntity
  8
0
  6
Continuous
 62
     4
100
AcDbCircle
 10
3.935844409689999
 20
5.27779580277
 30
0.0
 40
0.00646727219
  0
CIRCLE
  5
3B0
330
1E
100
AcDbEntity
  8
0
  6
Continuous
 62
     4
100
AcDbCircle
 10
3.924651053979999
 20
5.25491160888
 30
0.0
 40
0.0039876254
  0
CIRCLE
  5
3B1
330
1E
100
AcDbEntity
  8
0
  6
Continuous
 62
     4
100
AcDbCircle
 10
3.927635948839999
 20
5.227798813939999
 30
0.0
 40
0.00623839851
  0
CIRCLE
  5
3B2
330
1E
100
AcDbEntity
  8
0
  6
Continuous
 62
     4
100
AcDbCircle
 10
3.911219027129999
 20
5.21436678709
 30
0.0
 40
0.00429393952
  0
CIRCLE
  5
3B3
330
1E
100
AcDbEntity
  8
0
  6
Continuous
 62
     4
100
AcDbCircle
 10
3.926143501409999
 20
5.199442312809999
 30
0.0
 40
0.00552295178
  0
CIRCLE
  5
3B4
330
1E
100
AcDbEntity
  8
0
  6
Continuous
 62
     4
100
AcDbCircle
 10
3.925894760169999
 20
5.17979175501
 30
0.0
 40
0.00348237733
  0
CIRCLE
  5
3B5
330
1E
100
AcDbEntity
  8
0
  6
Continuous
 62
     4
100
AcDbCircle
 10
3.923158606559999
 20
5.16213112712
 30
0.0
 40
0.00549487355
  0
CIRCLE
  5
3B6
330
1E
100
AcDbEntity
  8
0
  6
Continuous
 62
     4
100
AcDbCircle
 10
3.940073010739999
 20
5.18277664987
 30
0.0
 40
0.00404921399
  0
CIRCLE
  5
3B7
330
1E
100
AcDbEntity
  8
0
  6
Continuous
 62
     4
100
AcDbCircle
 10
3.901020636379999
 20
5.332767616359999
 30
0.0
 40
0.00498103941
  0
CIRCLE
  5
3B8
330
1E
100
AcDbEntity
  8
0
  6
Continuous
 62
     4
100
AcDbCircle
 10
3.872415394009999
 20
5.332270133889999
 30
0.0
 40
0.00453910165
  0
CIRCLE
  5
3B9
330
1E
100
AcDbEntity
  8
0
  6
Continuous
 62
     4
100
AcDbCircle
 10
3.876892736289999
 20
5.320579295699999
 30
0.0
 40
0.00434407897
  0
CIRCLE
  5
3BA
330
1E
100
AcDbEntity
  8
0
  6
Continuous
 62
     4
100
AcDbCircle
 10
3.909975320939999
 20
5.320579295699999
 30
0.0
 40
0.00369780434
  0
CIRCLE
  5
3BB
330
1E
100
AcDbEntity
  8
0
  6
Continuous
 62
     4
100
AcDbCircle
 10
3.937088115879999
 20
5.301426220379999
 30
0.0
 40
0.00314635544
  0
CIRCLE
  5
3BC
330
1E
100
AcDbEntity
  8
0
  6
Continuous
 62
     4
100
AcDbCircle
 10
3.943057905589999
 20
5.25317042021
 30
0.0
 40
0.00457305202
  0
CIRCLE
  5
3BD
330
1E
100
AcDbEntity
  8
0
  6
Continuous
 62
     4
100
AcDbCircle
 10
3.942311681879999
 20
5.211381892229999
 30
0.0
 40
0.00512793199
  0
CIRCLE
  5
3BE
330
1E
100
AcDbEntity
  8
0
  6
Continuous
 62
     4
100
AcDbCircle
 10
3.940819234449999
 20
5.14919658274
 30
0.0
 40
0.00499963701
  0
CIRCLE
  5
3BF
330
1E
100
AcDbEntity
  8
0
  6
Continuous
 62
     4
100
AcDbCircle
 10
3.920919935409999
 20
5.141734345599999
 30
0.0
 40
0.00327168018
  0
CIRCLE
  5
3C0
330
1E
100
AcDbEntity
  8
0
  6
Continuous
 62
     4
100
AcDbCircle
 10
3.908980355989999
 20
5.13675952084
 30
0.0
 40
0.00635629994
  0
CIRCLE
  5
3C1
330
1E
100
AcDbEntity
  8
0
  6
Continuous
 62
     4
100
AcDbCircle
 10
3.886842385809999
 20
5.13153595485
 30
0.0
 40
0.00324318895
  0
CIRCLE
  5
3C2
330
1E
100
AcDbEntity
  8
0
  6
Continuous
 62
     4
100
AcDbCircle
 10
3.886842385809999
 20
5.105418124859999
 30
0.0
 40
0.00397985981
  0
CIRCLE
  5
3C3
330
1E
100
AcDbEntity
  8
0
  6
Continuous
 62
     4
100
AcDbCircle
 10
3.895299587899999
 20
5.089747426869999
 30
0.0
 40
0.00547230724
  0
CIRCLE
  5
3C4
330
1E
100
AcDbEntity
  8
0
  6
Continuous
 62
     4
100
AcDbCircle
 10
3.890076021909999
 20
5.07208679897
 30
0.0
 40
0.00423591065
  0
CIRCLE
  5
3C5
330
1E
100
AcDbEntity
  8
0
  6
Continuous
 62
     4
100
AcDbCircle
 10
3.896543294089999
 20
5.05790854841
 30
0.0
 40
0.00422860105
  0
TEXT
  5
47E
330
1E
100
AcDbEntity
  8
0
  6
Continuous
 62
     7
100
AcDbText
 10
3.581077310559999
 20
5.160767386209999
 30
0.0
 40
0.01
  1
.375
 41
1.066666666666667
 72
     5
 11
3.613077310559999
 21
5.160767386209999
 31
0.0
100
AcDbText
  0
LINE
  5
47F
330
1E
100
AcDbEntity
  8
0
  6
Continuous
 62
     7
100
AcDbLine
 10
3.882586268569999
 20
4.97505515944
 30
0.0
 11
3.584577310559999
 21
4.97505515944
 31
0.0
  0
LINE
  5
480
330
1E
100
AcDbEntity
  8
0
  6
Continuous
 62
     7
100
AcDbLine
 10
3.882586268569999
 20
5.35005515944
 30
0.0
 11
3.584577310559999
 21
5.35005515944
 31
0.0
  0
LINE
  5
481
330
1E
100
AcDbEntity
  8
0
  6
Continuous
 62
     7
100
AcDbLine
 10
3.597077310559999
 20
4.97505515944
 30
0.0
 11
3.597077310559999
 21
5.155767386209999
 31
0.0
  0
LINE
  5
482
330
1E
100
AcDbEntity
  8
0
  6
Continuous
 62
     7
100
AcDbLine
 10
3.597077310559999
 20
5.35005515944
 30
0.0
 11
3.597077310559999
 21
5.175767386209999
 31
0.0
  0
LWPOLYLINE
  5
483
330
1E
100
AcDbEntity
  8
0
  6
Continuous
 62
     7
100
AcDbPolyline
 90
        4
 70
     0
 43
0.0
 10
3.593952310559999
 20
4.993805159439999
 10
3.59707731056
 20
4.97505515944
 10
3.600202310559999
 20
4.993805159439999
 10
3.593952310559999
 20
4.993805159439999
  0
LWPOLYLINE
  5
484
330
1E
100
AcDbEntity
  8
0
  6
Continuous
 62
     7
100
AcDbPolyline
 90
        4
 70
     0
 43
0.0
 10
3.600202310559999
 20
5.33130515944
 10
3.59707731056
 20
5.35005515944
 10
3.593952310559999
 20
5.33130515944
 10
3.600202310559999
 20
5.33130515944
  0
TEXT
  5
485
330
1E
100
AcDbEntity
  8
0
  6
Continuous
 62
     7
100
AcDbText
 10
3.710591766929999
 20
5.2949925145
 30
0.0
 40
0.01
  1
.100
 41
1.371428571428553
 72
     5
 11
3.742591766929999
 21
5.2949925145
 31
0.0
100
AcDbText
  0
LINE
  5
487
330
1E
100
AcDbEntity
  8
0
  6
Continuous
 62
     2
100
AcDbLine
 10
3.820757320699999
 20
5.177608196319999
 30
0.0
 11
3.794521102349999
 21
5.153753168859999
 31
0.0
  0
LINE
  5
488
330
1E
100
AcDbEntity
  8
0
  6
Continuous
 62
     7
100
AcDbLine
 10
3.736496333889999
 20
5.236150840209999
 30
0.0
 11
3.678448909779999
 21
5.2999925145
 31
0.0
  0
LINE
  5
489
330
1E
100
AcDbEntity
  8
0
  6
Continuous
 62
     7
100
AcDbLine
 10
3.678448909779999
 20
5.2999925145
 30
0.0
 11
3.705591766929999
 21
5.2999925145
 31
0.0
  0
LINE
  5
48A
330
1E
100
AcDbEntity
  8
0
  6
Continuous
 62
     7
100
AcDbLine
 10
3.803769665459999
 20
5.162162335309999
 30
0.0
 11
3.837406331249999
 21
5.12516808285
 31
0.0
  0
LWPOLYLINE
  5
48B
330
1E
100
AcDbEntity
  8
0
  6
Continuous
 62
     7
100
AcDbPolyline
 90
        4
 70
     0
 43
0.0
 10
3.721570443439999
 20
5.24792139327
 10
3.736496333889999
 20
5.236150840209999
 10
3.72619472499
 20
5.2521259765
 10
3.721570443439999
 20
5.24792139327
  0
LWPOLYLINE
  5
48C
330
1E
100
AcDbEntity
  8
0
  6
Continuous
 62
     7
100
AcDbPolyline
 90
        4
 70
     0
 43
0.0
 10
3.818695555909999
 20
5.150391782249999
 10
3.803769665459999
 20
5.16216233531
 10
3.814071274359999
 20
5.146187199019999
 10
3.818695555909999
 20
5.150391782249999
  0
TEXT
  5
48D
330
1E
100
AcDbEntity
  8
0
  6
Continuous
 62
     7
100
AcDbText
 10
3.783871426569999
 20
5.418072915139999
 30
0.0
 40
0.01
  1
.329
 41
1.066666666666667
 72
     5
 11
3.815871426569999
 21
5.418072915139999
 31
0.0
100
AcDbText
  0
LINE
  5
48E
330
1E
100
AcDbEntity
  8
0
  6
Continuous
 62
     7
100
AcDbLine
 10
3.958836268569999
 20
5.316957862399999
 30
0.0
 11
3.958836268569999
 21
5.435572915139999
 31
0.0
  0
LINE
  5
48F
330
1E
100
AcDbEntity
  8
0
  6
Continuous
 62
     7
100
AcDbLine
 10
3.629836268569999
 20
5.12330515944
 30
0.0
 11
3.629836268569999
 21
5.435572915139999
 31
0.0
  0
LINE
  5
490
330
1E
100
AcDbEntity
  8
0
  6
Continuous
 62
     7
100
AcDbLine
 10
3.958836268569999
 20
5.42307291514
 30
0.0
 11
3.820871426569999
 21
5.42307291514
 31
0.0
  0
LINE
  5
491
330
1E
100
AcDbEntity
  8
0
  6
Continuous
 62
     7
100
AcDbLine
 10
3.629836268569999
 20
5.42307291514
 30
0.0
 11
3.778871426569999
 21
5.42307291514
 31
0.0
  0
LWPOLYLINE
  5
492
330
1E
100
AcDbEntity
  8
0
  6
Continuous
 62
     7
100
AcDbPolyline
 90
        4
 70
     0
 43
0.0
 10
3.940086268569999
 20
5.419947915139999
 10
3.958836268569999
 20
5.42307291514
 10
3.940086268569999
 20
5.42619791514
 10
3.940086268569999
 20
5.419947915139999
  0
LWPOLYLINE
  5
493
330
1E
100
AcDbEntity
  8
0
  6
Continuous
 62
     7
100
AcDbPolyline
 90
        4
 70
     0
 43
0.0
 10
3.648586268569999
 20
5.42619791514
 10
3.629836268569999
 20
5.42307291514
 10
3.648586268569999
 20
5.419947915139999
 10
3.648586268569999
 20
5.42619791514
  0
TEXT
  5
494
330
1E
100
AcDbEntity
  8
0
  6
Continuous
 62
     7
100
AcDbText
 10
3.751058418759999
 20
5.01551160539
 30
0.0
 40
0.01
  1
.092
 41
1.129411764705883
 72
     5
 11
3.783058418759999
 21
5.01551160539
 31
0.0
100
AcDbText
  0
LINE
  5
495
330
1E
100
AcDbEntity
  8
0
  6
Continuous
 62
     7
100
AcDbLine
 10
3.882586268569999
 20
4.97505515944
 30
0.0
 11
3.754558418759999
 21
4.97505515944
 31
0.0
  0
LINE
  5
496
330
1E
100
AcDbEntity
  8
0
  6
Continuous
 62
     7
100
AcDbLine
 10
3.686086268569999
 20
5.067055159439999
 30
0.0
 11
3.779558418759999
 21
5.067055159439999
 31
0.0
  0
LINE
  5
497
330
1E
100
AcDbEntity
  8
0
  6
Continuous
 62
     7
100
AcDbLine
 10
3.767058418759999
 20
4.97505515944
 30
0.0
 11
3.767058418759999
 21
5.01051160539
 31
0.0
  0
LINE
  5
498
330
1E
100
AcDbEntity
  8
0
  6
Continuous
 62
     7
100
AcDbLine
 10
3.767058418759999
 20
5.067055159439999
 30
0.0
 11
3.767058418759999
 21
5.03051160539
 31
0.0
  0
LWPOLYLINE
  5
499
330
1E
100
AcDbEntity
  8
0
  6
Continuous
 62
     7
100
AcDbPolyline
 90
        4
 70
     0
 43
0.0
 10
3.763933418759999
 20
4.993805159439999
 10
3.767058418759999
 20
4.97505515944
 10
3.770183418759999
 20
4.993805159439999
 10
3.763933418759999
 20
4.993805159439999
  0
LWPOLYLINE
  5
49A
330
1E
100
AcDbEntity
  8
0
  6
Continuous
 62
     7
100
AcDbPolyline
 90
        4
 70
     0
 43
0.0
 10
3.770183418759999
 20
5.048305159439999
 10
3.767058418759999
 20
5.067055159439999
 10
3.763933418759999
 20
5.048305159439999
 10
3.770183418759999
 20
5.048305159439999
  0
TEXT
  5
49B
330
1E
100
AcDbEntity
  8
0
  6
Continuous
 62
     7
100
AcDbText
 10
4.009396634189999
 20
5.148583456329999
 30
0.0
 40
0.01
  1
.100
 41
1.371428571428572
 72
     5
 11
4.041396634189999
 21
5.148583456329999
 31
0.0
100
AcDbText
  0
LINE
  5
49E
330
1E
100
AcDbEntity
  8
0
  6
Continuous
 62
     7
100
AcDbLine
 10
3.858836268569999
 20
5.153583456329999
 30
0.0
 11
3.808836268569999
 21
5.153583456329999
 31
0.0
  0
LINE
  5
49F
330
1E
100
AcDbEntity
  8
0
  6
Continuous
 62
     7
100
AcDbLine
 10
3.958836268569999
 20
5.153583456329999
 30
0.0
 11
4.004396634189999
 21
5.153583456329999
 31
0.0
  0
LWPOLYLINE
  5
4A0
330
1E
100
AcDbEntity
  8
0
  6
Continuous
 62
     7
100
AcDbPolyline
 90
        4
 70
     0
 43
0.0
 10
3.840086268569999
 20
5.150458456329999
 10
3.858836268569999
 20
5.153583456329999
 10
3.840086268569999
 20
5.156708456329999
 10
3.840086268569999
 20
5.150458456329999
  0
LWPOLYLINE
  5
4A1
330
1E
100
AcDbEntity
  8
0
  6
Continuous
 62
     7
100
AcDbPolyline
 90
        4
 70
     0
 43
0.0
 10
3.977586268569999
 20
5.156708456329999
 10
3.958836268569999
 20
5.153583456329999
 10
3.977586268569999
 20
5.150458456329999
 10
3.977586268569999
 20
5.156708456329999
  0
TEXT
  5
4A2
330
1E
100
AcDbEntity
  8
0
  6
Continuous
 62
     7
100
AcDbText
 10
4.083231149549999
 20
5.40307291514
 30
0.0
 40
0.01
  1
REF.
 41
1.066666666666667
 72
     5
 11
4.115231149549999
 21
5.40307291514
 31
0.0
100
AcDbText
  0
TEXT
  5
4A3
330
1E
100
AcDbEntity
  8
0
  6
Continuous
 62
     7
100
AcDbText
 10
4.083231149549999
 20
5.418072915139999
 30
0.0
 40
0.01
  1
.275
 41
1.066666666666667
 72
     5
 11
4.115231149549999
 21
5.418072915139999
 31
0.0
100
AcDbText
  0
LINE
  5
4A4
330
1E
100
AcDbEntity
  8
0
  6
Continuous
 62
     7
100
AcDbLine
 10
3.958836268569999
 20
5.32853895054
 30
0.0
 11
3.958836268569999
 21
5.435572915139999
 31
0.0
  0
LINE
  5
4A5
330
1E
100
AcDbEntity
  8
0
  6
Continuous
 62
     7
100
AcDbLine
 10
4.233836268569999
 20
5.011305159439999
 30
0.0
 11
4.233836268569999
 21
5.435572915139999
 31
0.0
  0
LINE
  5
4A6
330
1E
100
AcDbEntity
  8
0
  6
Continuous
 62
     7
100
AcDbLine
 10
3.958836268569999
 20
5.42307291514
 30
0.0
 11
4.078231149549999
 21
5.42307291514
 31
0.0
  0
LINE
  5
4A7
330
1E
100
AcDbEntity
  8
0
  6
Continuous
 62
     7
100
AcDbLine
 10
4.233836268569999
 20
5.42307291514
 30
0.0
 11
4.120231149549999
 21
5.42307291514
 31
0.0
  0
LWPOLYLINE
  5
4A8
330
1E
100
AcDbEntity
  8
0
  6
Continuous
 62
     7
100
AcDbPolyline
 90
        4
 70
     0
 43
0.0
 10
3.977586268569999
 20
5.42619791514
 10
3.958836268569999
 20
5.42307291514
 10
3.977586268569999
 20
5.419947915139999
 10
3.977586268569999
 20
5.42619791514
  0
LWPOLYLINE
  5
4A9
330
1E
100
AcDbEntity
  8
0
  6
Continuous
 62
     7
100
AcDbPolyline
 90
        4
 70
     0
 43
0.0
 10
4.215086268569999
 20
5.419947915139999
 10
4.23383626857
 20
5.42307291514
 10
4.215086268569999
 20
5.42619791514
 10
4.215086268569999
 20
5.419947915139999
  0
TEXT
  5
4AA
330
1E
100
AcDbEntity
  8
0
  6
Continuous
 62
     7
100
AcDbText
 10
4.22514883934
 20
4.895291195729999
 30
0.0
 40
0.01
  1
.110
 41
1.476923076923078
 72
     5
 11
4.25714883934
 21
4.895291195729999
 31
0.0
100
AcDbText
  0
TEXT
  5
4AB
330
1E
100
AcDbEntity
  8
0
  6
Continuous
 62
     7
100
AcDbText
 10
4.25714883934
 20
4.895291195729999
 30
0.0
 40
0.01
  1
%%p.010
 41
1.310000000100002
 72
     5
 11
4.30081550601
 21
4.895291195729999
 31
0.0
100
AcDbText
  0
LINE
  5
4AC
330
1E
100
AcDbEntity
  8
0
  6
Continuous
 62
     7
100
AcDbLine
 10
4.196888628089999
 20
5.06005515944
 30
0.0
 11
4.275482172679999
 21
5.06005515944
 31
0.0
  0
LINE
  5
4AD
330
1E
100
AcDbEntity
  8
0
  6
Continuous
 62
     7
100
AcDbLine
 10
4.196888628089999
 20
4.950055159439999
 30
0.0
 11
4.275482172679999
 21
4.950055159439999
 31
0.0
  0
LINE
  5
4AE
330
1E
100
AcDbEntity
  8
0
  6
Continuous
 62
     7
100
AcDbLine
 10
4.26298217268
 20
5.06005515944
 30
0.0
 11
4.26298217268
 21
5.00505515944
 31
0.0
  0
LINE
  5
4AF
330
1E
100
AcDbEntity
  8
0
  6
Continuous
 62
     7
100
AcDbLine
 10
4.26298217268
 20
4.950055159439999
 30
0.0
 11
4.26298217268
 21
5.00505515944
 31
0.0
  0
LINE
  5
4B0
330
1E
100
AcDbEntity
  8
0
  6
Continuous
 62
     7
100
AcDbLine
 10
4.26298217268
 20
5.00505515944
 30
0.0
 11
4.26298217268
 21
4.91029119573
 31
0.0
  0
LWPOLYLINE
  5
4B1
330
1E
100
AcDbEntity
  8
0
  6
Continuous
 62
     7
100
AcDbPolyline
 90
        4
 70
     0
 43
0.0
 10
4.266107172679999
 20
5.04130515944
 10
4.26298217268
 20
5.06005515944
 10
4.25985717268
 20
5.04130515944
 10
4.266107172679999
 20
5.04130515944
  0
LWPOLYLINE
  5
4B2
330
1E
100
AcDbEntity
  8
0
  6
Continuous
 62
     7
100
AcDbPolyline
 90
        4
 70
     0
 43
0.0
 10
4.25985717268
 20
4.96880515944
 10
4.26298217268
 20
4.950055159439999
 10
4.266107172679999
 20
4.96880515944
 10
4.25985717268
 20
4.96880515944
  0
ENDSEC
  0
SECTION
  2
OBJECTS
  0
DICTIONARY
  5
C
330
0
100
AcDbDictionary
281
     1
  3
ACAD_GROUP
350
D
  3
ACAD_LAYOUT
350
19
  3
ACAD_MLINESTYLE
350
16
  3
ACAD_PLOTSETTINGS
350
18
  3
ACAD_PLOTSTYLENAME
350
E
  3
AcDbVariableDictionary
350
479
  3
ASE_INDEX_DICTIONARY
350
4B4
  0
DICTIONARY
  5
D
102
{ACAD_REACTORS
330
C
102
}
330
C
100
AcDbDictionary
281
     1
  0
DICTIONARY
  5
19
102
{ACAD_REACTORS
330
C
102
}
330
C
100
AcDbDictionary
281
     1
  3
Layout1
350
1D
  3
Model
350
21
  0
DICTIONARY
  5
16
102
{ACAD_REACTORS
330
C
102
}
330
C
100
AcDbDictionary
281
     1
  3
Standard
350
17
  0
DICTIONARY
  5
18
102
{ACAD_REACTORS
330
C
102
}
330
C
100
AcDbDictionary
281
     1
  0
ACDBDICTIONARYWDFLT
  5
E
102
{ACAD_REACTORS
330
C
102
}
330
C
100
AcDbDictionary
281
     1
  3
Normal
350
F
100
AcDbDictionaryWithDefault
340
F
  0
DICTIONARY
  5
479
102
{ACAD_REACTORS
330
C
102
}
330
C
100
AcDbDictionary
281
     1
  3
DIMASSOC
350
47A
  0
DICTIONARY
  5
4B4
102
{ACAD_REACTORS
330
C
102
}
330
C
100
AcDbDictionary
281
     1
  3
ASEBlockHierarchyIndexRecord
350
4B6
1001
DCO15
1040
1526977293.670999
  0
LAYOUT
  5
1D
102
{ACAD_REACTORS
330
19
102
}
330
19
100
AcDbPlotSettings
  1

  2
Bluebeam PDF Printer
  4

  6

 40
0.0
 41
0.0
 42
0.0
 43
0.0
 44
0.0
 45
0.0
 46
0.0
 47
0.0
 48
0.0
 49
0.0
140
0.0
141
0.0
142
1.0
143
1.0
 70
   688
 72
     0
 73
     0
 74
     5
  7

 75
    16
147
1.0
148
0.0
149
0.0
100
AcDbLayout
  1
Layout1
 70
     1
 71
     1
 10
0.0
 20
0.0
 11
12.0
 21
9.0
 12
0.0
 22
0.0
 32
0.0
 14
1.000000000000000E+20
 24
1.000000000000000E+20
 34
1.000000000000000E+20
 15
-1.000000000000000E+20
 25
-1.000000000000000E+20
 35
-1.000000000000000E+20
146
0.0
 13
0.0
 23
0.0
 33
0.0
 16
1.0
 26
0.0
 36
0.0
 17
0.0
 27
1.0
 37
0.0
 76
     0
330
1A
  0
LAYOUT
  5
21
102
{ACAD_REACTORS
330
19
102
}
330
19
100
AcDbPlotSettings
  1

  2
Bluebeam PDF Printer
  4

  6

 40
0.0
 41
0.0
 42
0.0
 43
0.0
 44
0.0
 45
0.0
 46
0.0
 47
0.0
 48
0.0
 49
0.0
140
0.0
141
0.0
142
1.0
143
1.0
 70
  1712
 72
     0
 73
     0
 74
     0
  7

 75
     0
147
1.0
148
0.0
149
0.0
100
AcDbLayout
  1
Model
 70
     1
 71
     0
 10
0.0
 20
0.0
 11
12.0
 21
9.0
 12
0.0
 22
0.0
 32
0.0
 14
0.0
 24
0.0
 34
0.0
 15
0.0
 25
0.0
 35
0.0
146
0.0
 13
0.0
 23
0.0
 33
0.0
 16
1.0
 26
0.0
 36
0.0
 17
0.0
 27
1.0
 37
0.0
 76
     0
330
1E
  0
MLINESTYLE
  5
17
102
{ACAD_REACTORS
330
16
102
}
330
16
100
AcDbMlineStyle
  2
STANDARD
 70
     0
  3

 62
   256
 51
90.0
 52
90.0
 71
     2
 49
0.5
 62
   256
  6
BYLAYER
 49
-0.5
 62
   256
  6
BYLAYER
  0
ACDBPLACEHOLDER
  5
F
102
{ACAD_REACTORS
330
E
102
}
330
E
  0
DICTIONARYVAR
  5
47A
102
{ACAD_REACTORS
330
479
102
}
330
479
100
DictionaryVariables
280
     0
  1
1
  0
XRECORD
  5
4B6
102
{ACAD_REACTORS
330
4B4
102
}
330
4B4
100
AcDbXrecord
280
     1
  0
ENDSEC
  0
EOF
