  0
SECTION
  2
HEADER
  9
$ACADVER
  1
AC1009
  9
$INSBASE
 10
0.0
 20
0.0
 30
0.0
  9
$EXTMIN
 10
3.7008969229945659
 20
1.393613307477884
 30
0.0
  9
$EXTMAX
 10
3.986869305688074
 20
1.84528071402398
 30
0.0
  9
$LIMMIN
 10
0.0
 20
0.0
  9
$LIMMAX
 10
12.0
 20
9.0
  9
$ORTHOMODE
 70
     1
  9
$REGENMODE
 70
     1
  9
$FILLMODE
 70
     1
  9
$QTEXTMODE
 70
     0
  9
$MIRRTEXT
 70
     1
  9
$DRAGMODE
 70
     2
  9
$LTSCALE
 40
1.0
  9
$OSMODE
 70
    39
  9
$ATTMODE
 70
     1
  9
$TEXTSIZE
 40
0.2
  9
$TRACEWID
 40
0.05
  9
$TEXTSTYLE
  7
STANDARD
  9
$CLAYER
  8
0
  9
$CELTYPE
  6
BYLAYER
  9
$CECOLOR
 62
   256
  9
$DIMSCALE
 40
1.0
  9
$DIMASZ
 40
0.18
  9
$DIMEXO
 40
0.2
  9
$DIMDLI
 40
0.38
  9
$DIMRND
 40
0.0
  9
$DIMDLE
 40
0.0
  9
$DIMEXE
 40
0.18
  9
$DIMTP
 40
0.0
  9
$DIMTM
 40
0.0
  9
$DIMTXT
 40
0.18
  9
$DIMCEN
 40
0.09
  9
$DIMTSZ
 40
0.0
  9
$DIMTOL
 70
     0
  9
$DIMLIM
 70
     0
  9
$DIMTIH
 70
     1
  9
$DIMTOH
 70
     1
  9
$DIMSE1
 70
     0
  9
$DIMSE2
 70
     0
  9
$DIMTAD
 70
     0
  9
$DIMZIN
 70
     0
  9
$DIMBLK
  1

  9
$DIMASO
 70
     1
  9
$DIMSHO
 70
     1
  9
$DIMPOST
  1

  9
$DIMAPOST
  1

  9
$DIMALT
 70
     1
  9
$DIMALTD
 70
     2
  9
$DIMALTF
 40
25.399999999999999
  9
$DIMLFAC
 40
0.2
  9
$DIMTOFL
 70
     0
  9
$DIMTVP
 40
0.0
  9
$DIMTIX
 70
     0
  9
$DIMSOXD
 70
     0
  9
$DIMSAH
 70
     0
  9
$DIMBLK1
  1

  9
$DIMBLK2
  1

  9
$DIMSTYLE
  2
STANDARD
  9
$DIMCLRD
 70
     0
  9
$DIMCLRE
 70
     0
  9
$DIMCLRT
 70
     0
  9
$DIMTFAC
 40
1.0
  9
$DIMGAP
 40
0.09
  9
$LUNITS
 70
     2
  9
$LUPREC
 70
     3
  9
$SKETCHINC
 40
0.1
  9
$FILLETRAD
 40
0.014
  9
$AUNITS
 70
     0
  9
$AUPREC
 70
     0
  9
$MENU
  1
acad
  9
$ELEVATION
 40
0.0
  9
$PELEVATION
 40
0.0
  9
$THICKNESS
 40
0.0
  9
$LIMCHECK
 70
     0
  9
$BLIPMODE
 70
     0
  9
$CHAMFERA
 40
0.0
  9
$CHAMFERB
 40
0.0
  9
$SKPOLY
 70
     0
  9
$TDCREATE
 40
2450128.4861166668
  9
$TDUPDATE
 40
2451982.5792343752
  9
$TDINDWG
 40
0.0248612269
  9
$TDUSRTIMER
 40
0.0248612269
  9
$USRTIMER
 70
     1
  9
$ANGBASE
 50
0.0
  9
$ANGDIR
 70
     0
  9
$PDMODE
 70
     0
  9
$PDSIZE
 40
0.0
  9
$PLINEWID
 40
0.0
  9
$COORDS
 70
     0
  9
$SPLFRAME
 70
     0
  9
$SPLINETYPE
 70
     6
  9
$SPLINESEGS
 70
     8
  9
$ATTDIA
 70
     0
  9
$ATTREQ
 70
     1
  9
$HANDLING
 70
  4097
  9
$HANDSEED
  5
99
  9
$SURFTAB1
 70
     6
  9
$SURFTAB2
 70
     6
  9
$SURFTYPE
 70
     6
  9
$SURFU
 70
     6
  9
$SURFV
 70
     6
  9
$UCSNAME
  2

  9
$UCSORG
 10
0.0
 20
0.0
 30
0.0
  9
$UCSXDIR
 10
1.0
 20
0.0
 30
0.0
  9
$UCSYDIR
 10
0.0
 20
1.0
 30
0.0
  9
$PUCSNAME
  2

  9
$PUCSORG
 10
0.0
 20
0.0
 30
0.0
  9
$PUCSXDIR
 10
1.0
 20
0.0
 30
0.0
  9
$PUCSYDIR
 10
0.0
 20
1.0
 30
0.0
  9
$USERI1
 70
     0
  9
$USERI2
 70
     0
  9
$USERI3
 70
     0
  9
$USERI4
 70
     0
  9
$USERI5
 70
     0
  9
$USERR1
 40
0.0
  9
$USERR2
 40
0.0
  9
$USERR3
 40
0.0
  9
$USERR4
 40
0.0
  9
$USERR5
 40
0.0
  9
$WORLDVIEW
 70
     1
  9
$SHADEDGE
 70
     3
  9
$SHADEDIF
 70
    70
  9
$TILEMODE
 70
     1
  9
$MAXACTVP
 70
    16
  9
$PLIMCHECK
 70
     0
  9
$PEXTMIN
 10
1.0000000000000000E+020
 20
1.0000000000000000E+020
 30
1.0000000000000000E+020
  9
$PEXTMAX
 10
-1.0000000000000000E+020
 20
-1.0000000000000000E+020
 30
-1.0000000000000000E+020
  9
$PLIMMIN
 10
0.0
 20
0.0
  9
$PLIMMAX
 10
12.0
 20
9.0
  9
$UNITMODE
 70
     0
  9
$VISRETAIN
 70
     0
  9
$PLINEGEN
 70
     0
  9
$PSLTSCALE
 70
     1
  0
ENDSEC
  0
SECTION
  2
TABLES
  0
TABLE
  2
VPORT
 70
     2
  0
VPORT
  2
*ACTIVE
 70
     0
 10
0.0
 20
0.0
 11
1.0
 21
1.0
 12
3.9273082622592179
 22
1.635921480358751
 13
0.0
 23
0.0
 14
1.0
 24
1.0
 15
0.0
 25
0.0
 16
0.0
 26
0.0
 36
1.0
 17
0.0
 27
0.0
 37
0.0
 40
1.5321637426900581
 41
1.8397565922920891
 42
50.0
 43
0.0
 44
0.0
 50
0.0
 51
0.0
 71
     0
 72
   100
 73
     1
 74
     0
 75
     0
 76
     0
 77
     0
 78
     0
  0
ENDTAB
  0
TABLE
  2
LTYPE
 70
     1
  0
LTYPE
  2
CONTINUOUS
 70
     0
  3
Solid line
 72
    65
 73
     0
 40
0.0
  0
ENDTAB
  0
TABLE
  2
LAYER
 70
     1
  0
LAYER
  2
0
 70
     0
 62
     1
  6
CONTINUOUS
  0
ENDTAB
  0
TABLE
  2
STYLE
 70
     1
  0
STYLE
  2
STANDARD
 70
     0
 40
0.0
 41
1.0
 50
0.0
 71
     0
 42
0.2
  3
txt
  4

  0
ENDTAB
  0
TABLE
  2
VIEW
 70
     0
  0
ENDTAB
  0
TABLE
  2
UCS
 70
     0
  0
ENDTAB
  0
TABLE
  2
APPID
 70
     1
  0
APPID
  2
ACAD
 70
     0
  0
ENDTAB
  0
TABLE
  2
DIMSTYLE
 70
     1
  0
DIMSTYLE
  2
STANDARD
 70
     0
  3

  4

  5

  6

  7

 40
1.0
 41
0.18
 42
0.0625
 43
0.38
 44
0.18
 45
0.0
 46
0.0
 47
0.0
 48
0.0
140
0.18
141
0.09
142
0.0
143
25.399999999999999
144
1.0
145
0.0
146
1.0
147
0.09
 71
     0
 72
     0
 73
     1
 74
     1
 75
     0
 76
     0
 77
     0
 78
     0
170
     0
171
     2
172
     0
173
     0
174
     0
175
     0
176
     0
177
     0
178
     0
  0
ENDTAB
  0
ENDSEC
  0
SECTION
  2
BLOCKS
  0
BLOCK
  8
0
  2
$MODEL_SPACE
 70
     0
 10
0.0
 20
0.0
 30
0.0
  3
$MODEL_SPACE
  1

  0
ENDBLK
  5
9
  8
0
  0
BLOCK
 67
     1
  8
0
  2
$PAPER_SPACE
 70
     0
 10
0.0
 20
0.0
 30
0.0
  3
$PAPER_SPACE
  1

  0
ENDBLK
  5
E
 67
     1
  8
0
  0
ENDSEC
  0
SECTION
  2
ENTITIES
  0
LINE
  5
28
  8
0
 10
3.7335559229945661
 20
1.433933582384046
 30
0.0
 11
3.7335559229945661
 21
1.621032582384047
 31
0.0
  0
LINE
  5
2A
  8
0
 10
3.7904729229945651
 20
1.5339285823840469
 30
0.0
 11
3.8238209229945652
 21
1.4962475823840471
 31
0.0
  0
LINE
  5
2B
  8
0
 10
3.7961249229945651
 20
1.534443582384047
 30
0.0
 11
3.8284243982206378
 21
1.498459298939196
 31
0.0
  0
LINE
  5
2C
  8
0
 10
3.7068969229945661
 20
1.419486676665032
 30
0.0
 11
3.7068969229945661
 21
1.5624925823840481
 31
0.0
  0
LINE
  5
2D
  8
0
 10
3.7128969229945659
 20
1.4194373124003259
 30
0.0
 11
3.712896922994565
 21
1.829012582384048
 31
0.0
  0
LINE
  5
2E
  8
0
 10
3.8253405525367401
 20
1.4696187842926081
 30
0.0
 11
3.7390493229509181
 21
1.4036021189028249
 31
0.0
  0
LINE
  5
2F
  8
0
 10
3.735402735786983
 20
1.408317458591019
 30
0.0
 11
3.8221569229945649
 21
1.4746775823840459
 31
0.0
  0
LINE
  5
30
  8
0
 10
3.8206729229945648
 20
1.488287582384046
 30
0.0
 11
3.7397329229945662
 21
1.4305775823840461
 31
0.0
  0
ARC
  5
31
  8
0
 10
3.7375559229945661
 20
1.433933582384046
 30
0.0
 40
0.004
 50
180.00344799999991
 51
302.97816499999988
  0
ARC
  5
32
  8
0
 10
3.7268969229945661
 20
1.419486676665032
 30
0.0
 40
0.02
 50
180.0
 51
307.41761154967207
  0
ARC
  5
33
  8
0
 10
3.7268969229945661
 20
1.4194373124003259
 30
0.0
 40
0.014
 50
180.0
 51
307.41314322960432
  0
ARC
  5
34
  8
0
 10
3.814126922994566
 20
1.4861465823840461
 30
0.0
 40
0.014
 50
305.00047299999989
 51
46.178740999999981
  0
LINE
  5
35
  8
0
 10
3.8266099229945651
 20
1.479808582384047
 30
0.0
 11
3.8206729229945648
 21
1.488287582384046
 31
0.0
  0
ARC
  5
36
  8
0
 10
3.8131881525803881
 20
1.485503342054814
 30
0.0
 40
0.02
 50
307.41761154967219
 51
40.375773800491267
  0
LINE
  5
37
  8
0
 10
3.918047723664412
 20
1.586012582384047
 30
0.0
 11
3.8200079229945652
 21
1.586012582384047
 31
0.0
  0
LINE
  5
38
  8
0
 10
3.8213519229945661
 20
1.5920125823840481
 30
0.0
 11
3.918579922994565
 21
1.5920125823840481
 31
0.0
  0
LINE
  5
39
  8
0
 10
3.918579922994565
 20
1.830012582384047
 30
0.0
 11
3.7138969229945662
 21
1.830012582384047
 31
0.0
  0
LINE
  5
3A
  8
0
 10
3.7138969229945662
 20
1.836012582384047
 30
0.0
 11
3.918047144997427
 21
1.836012582384047
 31
0.0
  0
LINE
  5
3B
  8
0
 10
3.7068969229945661
 20
1.5731555823840451
 30
0.0
 11
3.7068969229945661
 21
1.829012582384048
 31
0.0
  0
ARC
  5
3C
  8
0
 10
-3.8213519229945661
 20
1.554762582384047
 30
0.0
 40
0.03725
210
0.0
220
0.0
230
-1.0
 50
325.99331699999999
 51
90.0
  0
LINE
  5
3D
  8
0
 10
3.8135559229945648
 20
1.621032582384047
 30
0.0
 11
3.7335559229945661
 21
1.621032582384047
 31
0.0
  0
LINE
  5
3E
  8
0
 10
3.8135559229945648
 20
1.6410315823840469
 30
0.0
 11
3.712896922994565
 21
1.6410315823840469
 31
0.0
  0
LINE
  5
3F
  8
0
 10
3.7008969229945659
 20
1.571597582384046
 30
0.0
 11
3.7008969229945659
 21
1.7091845823840479
 31
0.0
  0
LINE
  5
40
  8
0
 10
3.7068969229945661
 20
1.5731555823840451
 30
0.0
 11
3.712896922994565
 21
1.5731555823840451
 31
0.0
  0
LINE
  5
41
  8
0
 10
3.7068969229945661
 20
1.5731555823840451
 30
0.0
 11
3.712896922994565
 21
1.5640495823840459
 31
0.0
  0
LINE
  5
42
  8
0
 10
3.7008969229945659
 20
1.571597582384046
 30
0.0
 11
3.7068969229945661
 21
1.5624925823840481
 31
0.0
  0
LINE
  5
43
  8
0
 10
3.7008969229945659
 20
1.7091845823840479
 30
0.0
 11
3.7068969229945661
 21
1.7091845823840479
 31
0.0
  0
ARC
  5
44
  8
0
 10
3.8236469229945662
 20
1.5530125823840459
 30
0.0
 40
0.0332
 50
96.292114000000055
 51
214.0068509999999
  0
LINE
  5
45
  8
0
 10
3.8135559229945648
 20
1.621032582384047
 30
0.0
 11
3.8135559229945648
 21
1.6410315823840469
 31
0.0
  0
ARC
  5
46
  8
0
 10
-3.7138969229945662
 20
1.829012582384048
 30
0.0
 40
0.001
210
0.0
220
0.0
230
-1.0
 50
0.0
 51
90.0
  0
ARC
  5
47
  8
0
 10
-3.7138969229945662
 20
1.829012582384048
 30
0.0
 40
0.007
210
0.0
220
0.0
230
-1.0
 50
0.0
 51
90.0
  0
ARC
  5
48
  8
0
 10
-3.6962609229945649
 20
1.711012582384047
 30
0.0
 40
0.284618
210
0.0
220
0.0
230
-1.0
 50
163.53943599999999
 51
196.4604719999999
  0
ARC
  5
49
  8
0
 10
3.7012106650033041
 20
1.711011631757912
 30
0.0
 40
0.2856582737600582
 50
343.01840995967399
 51
16.98209400622634
  0
ARC
  5
4A
  8
0
 10
3.918579922994565
 20
1.6446125823840481
 30
0.0
 40
0.0526
 50
270.00001499999991
 51
344.28383600000001
  0
ARC
  5
4B
  8
0
 10
3.918047723664412
 20
1.6450125823840469
 30
0.0
 40
0.059
 50
270.0
 51
342.81545913855251
  0
ARC
  5
4C
  8
0
 10
3.918579922994565
 20
1.777412582384047
 30
0.0
 40
0.0526
 50
15.71620199999998
 51
90.0
  0
ARC
  5
4D
  8
0
 10
3.918047144997427
 20
1.777012582384047
 30
0.0
 40
0.059
 50
17.18505094107817
 51
90.0
  0
ENDSEC
  0
EOF
