  0
SECTION
  2
HEADER
  9
$ACADVER
  1
AC1009
  9
$INSBASE
 10
0.0
 20
0.0
 30
0.0
  9
$EXTMIN
 10
-0.4406453776979414
 20
-0.1316734499422623
 30
-0.0015258207003583
  9
$EXTMAX
 10
-0.0397366711575407
 20
0.4533620206747182
 30
0.0000000349246037
  9
$LIMMIN
 10
0.0
 20
0.0
  9
$LIMMAX
 10
1.1999999999999991
 20
1.0
  9
$ORTHOMODE
 70
     0
  9
$REGENMODE
 70
     1
  9
$FILLMODE
 70
     1
  9
$QTEXTMODE
 70
     0
  9
$MIRRTEXT
 70
     1
  9
$DRAGMODE
 70
     2
  9
$LTSCALE
 40
1.0
  9
$OSMODE
 70
    49
  9
$ATTMODE
 70
     1
  9
$TEXTSIZE
 40
0.125
  9
$TRACEWID
 40
0.05
  9
$TEXTSTYLE
  7
STANDARD
  9
$CLAYER
  8
DIM
  9
$CELTYPE
  6
BYLAYER
  9
$CECOLOR
 62
     1
  9
$DIMSCALE
 40
0.0
  9
$DIMASZ
 40
0.125
  9
$DIMEXO
 40
0.05
  9
$DIMDLI
 40
0.02
  9
$DIMRND
 40
0.0
  9
$DIMDLE
 40
0.0
  9
$DIMEXE
 40
0.05
  9
$DIMTP
 40
0.005
  9
$DIMTM
 40
0.005
  9
$DIMTXT
 40
0.125
  9
$DIMCEN
 40
0.02
  9
$DIMTSZ
 40
0.0
  9
$DIMTOL
 70
     0
  9
$DIMLIM
 70
     0
  9
$DIMTIH
 70
     1
  9
$DIMTOH
 70
     1
  9
$DIMSE1
 70
     0
  9
$DIMSE2
 70
     0
  9
$DIMTAD
 70
     0
  9
$DIMZIN
 70
     4
  9
$DIMBLK
  1

  9
$DIMASO
 70
     1
  9
$DIMSHO
 70
     1
  9
$DIMPOST
  1

  9
$DIMAPOST
  1

  9
$DIMALT
 70
     0
  9
$DIMALTD
 70
     1
  9
$DIMALTF
 40
25.399999999999999
  9
$DIMLFAC
 40
1.0
  9
$DIMTOFL
 70
     0
  9
$DIMTVP
 40
0.0
  9
$DIMTIX
 70
     0
  9
$DIMSOXD
 70
     0
  9
$DIMSAH
 70
     0
  9
$DIMBLK1
  1

  9
$DIMBLK2
  1

  9
$DIMSTYLE
  2
SCOTTG
  9
$DIMCLRD
 70
   256
  9
$DIMCLRE
 70
   256
  9
$DIMCLRT
 70
   256
  9
$DIMTFAC
 40
1.0
  9
$DIMGAP
 40
0.02
  9
$LUNITS
 70
     2
  9
$LUPREC
 70
     5
  9
$SKETCHINC
 40
0.1
  9
$FILLETRAD
 40
0.01
  9
$AUNITS
 70
     0
  9
$AUPREC
 70
     0
  9
$MENU
  1
.
  9
$ELEVATION
 40
0.0
  9
$PELEVATION
 40
0.0
  9
$THICKNESS
 40
0.0
  9
$LIMCHECK
 70
     0
  9
$BLIPMODE
 70
     0
  9
$CHAMFERA
 40
0.0
  9
$CHAMFERB
 40
0.0
  9
$SKPOLY
 70
     0
  9
$TDCREATE
 40
2450919.3750775461
  9
$TDUPDATE
 40
2455804.4988941671
  9
$TDINDWG
 40
2.3998992244999999
  9
$TDUSRTIMER
 40
2.3998992244999999
  9
$USRTIMER
 70
     1
  9
$ANGBASE
 50
0.0
  9
$ANGDIR
 70
     0
  9
$PDMODE
 70
     0
  9
$PDSIZE
 40
0.0
  9
$PLINEWID
 40
0.0
  9
$COORDS
 70
     1
  9
$SPLFRAME
 70
     0
  9
$SPLINETYPE
 70
     6
  9
$SPLINESEGS
 70
     8
  9
$ATTDIA
 70
     0
  9
$ATTREQ
 70
     1
  9
$HANDLING
 70
     1
  9
$HANDSEED
  5
1A0AB
  9
$SURFTAB1
 70
     6
  9
$SURFTAB2
 70
     6
  9
$SURFTYPE
 70
     6
  9
$SURFU
 70
     6
  9
$SURFV
 70
     6
  9
$UCSNAME
  2

  9
$UCSORG
 10
0.0
 20
0.0
 30
0.0
  9
$UCSXDIR
 10
1.0
 20
0.0
 30
0.0
  9
$UCSYDIR
 10
0.0
 20
1.0
 30
0.0
  9
$PUCSNAME
  2

  9
$PUCSORG
 10
0.0
 20
0.0
 30
0.0
  9
$PUCSXDIR
 10
1.0
 20
0.0
 30
0.0
  9
$PUCSYDIR
 10
0.0
 20
1.0
 30
0.0
  9
$USERI1
 70
     0
  9
$USERI2
 70
     0
  9
$USERI3
 70
     0
  9
$USERI4
 70
     0
  9
$USERI5
 70
     0
  9
$USERR1
 40
0.0
  9
$USERR2
 40
0.0
  9
$USERR3
 40
0.0
  9
$USERR4
 40
0.0
  9
$USERR5
 40
0.0
  9
$WORLDVIEW
 70
     1
  9
$SHADEDGE
 70
     3
  9
$SHADEDIF
 70
    70
  9
$TILEMODE
 70
     1
  9
$MAXACTVP
 70
    48
  9
$PLIMCHECK
 70
     0
  9
$PEXTMIN
 10
-0.0002593796237598
 20
-0.0003357869613225
 30
-0.0015258207003583
  9
$PEXTMAX
 10
8.5002594192049692
 20
11.000335718974769
 30
0.0000000349246037
  9
$PLIMMIN
 10
0.0000001811605737
 20
-0.0000001192092895
  9
$PLIMMAX
 10
8.4999999408646811
 20
10.999999640494821
  9
$UNITMODE
 70
     0
  9
$VISRETAIN
 70
     1
  9
$PLINEGEN
 70
     0
  9
$PSLTSCALE
 70
     1
  0
ENDSEC
  0
SECTION
  2
TABLES
  0
TABLE
  2
VPORT
 70
     1
  0
VPORT
  2
*ACTIVE
 70
     0
 10
0.0
 20
0.0
 11
1.0
 21
1.0
 12
-19.962178070423089
 22
-0.4783335633468305
 13
0.0
 23
0.0
 14
0.5
 24
0.5
 15
0.5
 25
0.5
 16
0.0
 26
0.0
 36
5.6148375865943736
 17
19.721987045995348
 27
0.6391778487130584
 37
0.0
 40
0.5888717687849608
 41
2.067833698030634
 42
50.0
 43
0.0
 44
0.0
 50
0.0
 51
0.0
 71
     0
 72
 20000
 73
     1
 74
     0
 75
     0
 76
     0
 77
     0
 78
     0
  0
ENDTAB
  0
TABLE
  2
LTYPE
 70
     1
  0
LTYPE
  2
CONTINUOUS
 70
     0
  3
Solid line
 72
    65
 73
     0
 40
0.0
  0
ENDTAB
  0
TABLE
  2
LAYER
 70
     6
  0
LAYER
  2
0
 70
     0
 62
     7
  6
CONTINUOUS
  0
LAYER
  2
DEFPOINTS
 70
     0
 62
     7
  6
CONTINUOUS
  0
LAYER
  2
HATCH
 70
     0
 62
     7
  6
CONTINUOUS
  0
LAYER
  2
PART
 70
     0
 62
     7
  6
CONTINUOUS
  0
LAYER
  2
DIM
 70
     0
 62
     7
  6
CONTINUOUS
  0
ENDTAB
  0
TABLE
  2
STYLE
 70
     3
  0
STYLE
  2
STANDARD
 70
     0
 40
0.0
 41
1.0
 50
0.0
 71
     0
 42
0.125
  3
txt
  4

  0
STYLE
  2
ROMANS
 70
     0
 40
0.0
 41
1.0
 50
0.0
 71
     0
 42
0.1
  3
SIMPLEX.shx
  4

  0
ENDTAB
  0
TABLE
  2
VIEW
 70
     0
  0
ENDTAB
  0
TABLE
  2
UCS
 70
     0
  0
ENDTAB
  0
TABLE
  2
APPID
 70
    16
  0
APPID
  2
ACAD
 70
     0
  0
APPID
  2
ADP_SK
 70
     0
  0
APPID
  2
ADP_SOL
 70
     0
  0
APPID
  2
ACIS_LNK
 70
     0
  0
APPID
  2
AME_SOL
 70
     0
  0
APPID
  2
ACAD_MLEADERVER
 70
     0
  0
APPID
  2
ACAD_EXEMPT_FROM_CAD_STANDARDS
 70
     0
  0
APPID
  2
ACAD_PSEXT
 70
     0
  0
APPID
  2
ACDBDYNAMICBLOCKGUID
 70
     0
  0
APPID
  2
ACDBBLOCKREPETAG
 70
     0
  0
APPID
  2
ACDBDYNAMICBLOCKTRUENAME
 70
     0
  0
APPID
  2
ACAD_DSTYLE_DIMJAG
 70
     0
  0
APPID
  2
ACAD_DSTYLE_DIMTALN
 70
     0
  0
APPID
  2
ACAECLAYERSTANDARD
 70
     0
  0
APPID
  2
ACAUTHENVIRON
 70
     0
  0
APPID
  2
ACADANNOPO
 70
     0
  0
ENDTAB
  0
TABLE
  2
DIMSTYLE
 70
     2
  0
DIMSTYLE
  2
SCOTTG
 70
     0
  3

  4

  5

  6

  7

 40
0.15
 41
0.125
 42
0.1
 43
0.25
 44
0.1
 45
0.0
 46
0.0
 47
0.01
 48
0.01
140
0.125
141
0.06
142
0.0
143
25.399999999999999
144
1.0
145
0.0
146
1.0
147
0.09
 71
     1
 72
     0
 73
     1
 74
     1
 75
     0
 76
     0
 77
     0
 78
     4
170
     0
171
     1
172
     0
173
     0
174
     1
175
     0
176
   256
177
   256
178
   256
  0
ENDTAB
  0
ENDSEC
  0
SECTION
  2
BLOCKS
  0
BLOCK
  8
0
  2
$MODEL_SPACE
 70
     0
 10
0.0
 20
0.0
 30
0.0
  3
$MODEL_SPACE
  1

  0
ENDBLK
  5
1A
  8
0
  0
BLOCK
 67
     1
  8
0
  2
$PAPER_SPACE
 70
     0
 10
0.0
 20
0.0
 30
0.0
  3
$PAPER_SPACE
  1

  0
ENDBLK
  5
B932
 67
     1
  8
0
  0
BLOCK
  8
0
 62
     1
  2
*X23
 70
     1
 10
0.0
 20
0.0
 30
0.0
  3
*X23
  1

  0
LINE
  5
19F34
  8
0
 62
     0
 10
0.3235546076436802
 20
0.5547695859835127
 30
0.0
 11
0.3197301875135186
 21
0.5690425162187643
 31
0.0
  0
LINE
  5
19F35
  8
0
 62
     0
 10
0.3318745530257914
 20
0.5237191271012751
 30
0.0
 11
0.32805013289563
 21
0.5379920573365276
 31
0.0
  0
LINE
  5
19F36
  8
0
 62
     0
 10
0.3237457110902502
 20
0.5057600868969577
 30
0.0
 11
0.3220065587088541
 21
0.5122506919464325
 31
0.0
  0
LINE
  5
19F37
  8
0
 62
     0
 10
0.3862141796633149
 20
0.2726245883112588
 30
0.0
 11
0.3820060926434925
 21
0.2883293828719084
 31
0.0
  0
LINE
  5
19F38
  8
0
 62
     0
 10
0.3054500361732291
 20
0.5740404752460444
 30
0.0
 11
0.3037108837918327
 21
0.5805310802955203
 31
0.0
  0
LINE
  5
19F39
  8
0
 62
     0
 10
0.3966347419679486
 20
0.2337345203469301
 30
0.0
 11
0.3941950456241934
 21
0.2428395910568639
 31
0.0
  0
LINE
  5
19F3A
  8
0
 62
     0
 10
0.3137351724678625
 20
0.494823634332386
 30
0.0
 11
0.3122407979727828
 21
0.5004007158735578
 31
0.0
  0
LINE
  5
19F3B
  8
0
 62
     0
 10
0.2911150950584793
 20
0.5792429124953449
 30
0.0
 11
0.2897004712957452
 21
0.5845223602514631
 31
0.0
  0
LINE
  5
19F3C
  8
0
 62
     0
 10
0.3667073390672479
 20
0.2971288171964748
 30
0.0
 11
0.3645415347057903
 21
0.3052117091126893
 31
0.0
  0
LINE
  5
19F3D
  8
0
 62
     0
 10
0.3035293753805661
 20
0.4846158962794594
 30
0.0
 11
0.3020350008860415
 21
0.4901929778185608
 31
0.0
  0
LINE
  5
19F3E
  8
0
 62
     0
 10
0.2780613253143782
 20
0.5796639530961816
 30
0.0
 11
0.2767543056193629
 21
0.5845418170044719
 31
0.0
  0
LINE
  5
19F3F
  8
0
 62
     0
 10
0.3509120053864747
 20
0.3077815137011708
 30
0.0
 11
0.3491992716085752
 21
0.3141735231801306
 31
0.0
  0
LINE
  5
19F40
  8
0
 62
     0
 10
0.2933235782932697
 20
0.4744081582265345
 30
0.0
 11
0.2918292037993002
 21
0.4799852397635638
 31
0.0
  0
LINE
  5
19F41
  8
0
 62
     0
 10
0.2659579213509606
 20
0.5765381803177326
 30
0.0
 11
0.2646538841755701
 21
0.581404913311248
 31
0.0
  0
LINE
  5
19F42
  8
0
 62
     0
 10
0.3364012265586009
 20
0.313640186229736
 30
0.0
 11
0.3348982766083248
 21
0.3192492718053996
 31
0.0
  0
LINE
  5
19F43
  8
0
 62
     0
 10
0.2831177812059742
 20
0.4642004201736097
 30
0.0
 11
0.2816234067125596
 21
0.4697775017085677
 31
0.0
  0
LINE
  5
19F44
  8
0
 62
     0
 10
0.2549241603426282
 20
0.5694204456849512
 30
0.0
 11
0.2533936523847233
 21
0.5751323791452406
 31
0.0
  0
LINE
  5
19F45
  8
0
 62
     0
 10
0.3226977799381432
 20
0.316485853941642
 30
0.0
 11
0.3213094713754534
 21
0.3216670920341826
 31
0.0
  0
LINE
  5
19F46
  8
0
 62
     0
 10
0.2729119841186778
 20
0.4539926821206839
 30
0.0
 11
0.2714176096258181
 21
0.4595697636535716
 31
0.0
  0
LINE
  5
19F47
  8
0
 62
     0
 10
0.2442877627570388
 20
0.5608197305694196
 30
0.0
 11
0.2428687213022331
 21
0.5661156653768007
 31
0.0
  0
LINE
  5
19F48
  8
0
 62
     0
 10
0.3096190605071991
 20
0.3170000080414095
 30
0.0
 11
0.3082793145450435
 21
0.3220000080414103
 31
0.0
  0
LINE
  5
19F49
  8
0
 62
     0
 10
0.2627061870313816
 20
0.4437849440677582
 30
0.0
 11
0.2612118125390765
 21
0.4493620255985756
 31
0.0
  0
LINE
  5
19F4A
  8
0
 62
     0
 10
0.2336944578606641
 20
0.5520581913483041
 30
0.0
 11
0.232268226549853
 21
0.5573809590635968
 31
0.0
  0
LINE
  5
19F4B
  8
0
 62
     0
 10
0.2966781082520731
 20
0.3170000080414095
 30
0.0
 11
0.2953383622899175
 21
0.3220000080414103
 31
0.0
  0
LINE
  5
19F4C
  8
0
 62
     0
 10
0.252500389944085
 20
0.4335772060148333
 30
0.0
 11
0.2510060154523352
 21
0.4391542875435777
 31
0.0
  0
LINE
  5
19F4D
  8
0
 62
     0
 10
0.2231449073383847
 20
0.543133358580012
 30
0.0
 11
0.2217111973933685
 21
0.5484840369381283
 31
0.0
  0
LINE
  5
19F4E
  8
0
 62
     0
 10
0.2837371559969468
 20
0.3170000080414095
 30
0.0
 11
0.282397410034791
 21
0.3220000080414103
 31
0.0
  0
LINE
  5
19F4F
  8
0
 62
     0
 10
0.242294592856789
 20
0.4233694679619067
 30
0.0
 11
0.2408002183655935
 21
0.4289465494885825
 31
0.0
  0
LINE
  5
19F50
  8
0
 62
     0
 10
0.212639806658784
 20
0.5340426367404545
 30
0.0
 11
0.2111983178951986
 21
0.5394223460446943
 31
0.0
  0
LINE
  5
19F51
  8
0
 62
     0
 10
0.2707962037418208
 20
0.3170000080414095
 30
0.0
 11
0.2694564577796652
 21
0.3220000080414085
 31
0.0
  0
LINE
  5
19F52
  8
0
 62
     0
 10
0.2320887957694926
 20
0.4131617299089819
 30
0.0
 11
0.2305944212788524
 21
0.4187388114335855
 31
0.0
  0
LINE
  5
19F53
  8
0
 62
     0
 10
0.2021798870465539
 20
0.5247832968619292
 30
0.0
 11
0.2007303070981408
 21
0.5301932028790404
 31
0.0
  0
LINE
  5
19F54
  8
0
 62
     0
 10
0.2578552514866945
 20
0.3170000080414104
 30
0.0
 11
0.2565155055245392
 21
0.3220000080414085
 31
0.0
  0
LINE
  5
19F55
  8
0
 62
     0
 10
0.2218829986821968
 20
0.4029539918560561
 30
0.0
 11
0.2203886241921116
 21
0.4085310733785894
 31
0.0
  0
LINE
  5
19F56
  8
0
 62
     0
 10
0.1917659176210191
 20
0.5153524685520418
 30
0.0
 11
0.1903079211001371
 21
0.5207937856452327
 31
0.0
  0
LINE
  5
19F57
  8
0
 62
     0
 10
0.2449142992315691
 20
0.3170000080414086
 30
0.0
 11
0.2435745532694138
 21
0.3220000080414085
 31
0.0
  0
LINE
  5
19F58
  8
0
 62
     0
 10
0.2116772015949007
 20
0.3927462538031303
 30
0.0
 11
0.2101828271053703
 21
0.3983233353235924
 31
0.0
  0
LINE
  5
19F59
  8
0
 62
     0
 10
0.1813987077176924
 20
0.5057471313295352
 30
0.0
 11
0.1799319553053575
 21
0.511221125854493
 31
0.0
  0
LINE
  5
19F5A
  8
0
 62
     0
 10
0.2319733469764429
 20
0.3170000080414095
 30
0.0
 11
0.2306336010142878
 21
0.3220000080414085
 31
0.0
  0
LINE
  5
19F5B
  8
0
 62
     0
 10
0.2190323947213169
 20
0.3170000080414095
 30
0.0
 11
0.2176926487591613
 21
0.3220000080414094
 31
0.0
  0
LINE
  5
19F5C
  8
0
 62
     0
 10
0.201471404507604
 20
0.3825385157502064
 30
0.0
 11
0.199977030018629
 21
0.3881155972685963
 31
0.0
  0
LINE
  5
19F5D
  8
0
 62
     0
 10
0.2454261050689754
 20
0.2184973400236911
 30
0.0
 11
0.2452578519517865
 21
0.2191252692055716
 31
0.0
  0
LINE
  5
19F5E
  8
0
 62
     0
 10
0.1710791094118944
 20
0.4959641052060216
 30
0.0
 11
0.1696032468697985
 21
0.5014720991981108
 31
0.0
  0
LINE
  5
19F5F
  8
0
 62
     0
 10
0.2490427042736023
 20
0.2050000080414103
 30
0.0
 11
0.2464839711545783
 21
0.2145493300446173
 31
0.0
  0
LINE
  5
19F60
  8
0
 62
     0
 10
0.1913606118752333
 20
0.3719762162445521
 30
0.0
 11
0.1897792048289355
 21
0.3778781076887832
 31
0.0
  0
LINE
  5
19F61
  8
0
 62
     0
 10
0.2056568761825808
 20
0.3186218314910976
 30
0.0
 11
0.2040754691362832
 21
0.3245237229353277
 31
0.0
  0
LINE
  5
19F62
  8
0
 62
     0
 10
0.1608080202658593
 20
0.4860000404336394
 30
0.0
 11
0.1593226773618503
 21
0.4915434156180627
 31
0.0
  0
LINE
  5
19F63
  8
0
 62
     0
 10
0.236101752018476
 20
0.2050000080414094
 30
0.0
 11
0.2347620060563207
 21
0.2100000080414093
 31
0.0
  0
LINE
  5
19F64
  8
0
 62
     0
 10
0.1901390446661548
 20
0.3282388758192392
 30
0.0
 11
0.1811488906881347
 21
0.3617905872330782
 31
0.0
  0
LINE
  5
19F65
  8
0
 62
     0
 10
0.1505863863235468
 20
0.4758514063282658
 30
0.0
 11
0.1490911756609414
 21
0.4814316084891282
 31
0.0
  0
LINE
  5
19F66
  8
0
 62
     0
 10
0.22316079976335
 20
0.2050000080414094
 30
0.0
 11
0.2218210538011947
 21
0.2100000080414093
 31
0.0
  0
LINE
  5
19F67
  8
0
 62
     0
 10
0.1404152053805567
 20
0.4655144790660275
 30
0.0
 11
0.1389097211203749
 21
0.4711330228150219
 31
0.0
  0
LINE
  5
19F68
  8
0
 62
     0
 10
0.2102198475082238
 20
0.2050000080414103
 30
0.0
 11
0.2088801015460682
 21
0.2100000080414102
 31
0.0
  0
LINE
  5
19F69
  8
0
 62
     0
 10
0.1302955305602342
 20
0.4549853283370915
 30
0.0
 11
0.1287793470239664
 21
0.4606438023280433
 31
0.0
  0
LINE
  5
19F6A
  8
0
 62
     0
 10
0.1972788952530977
 20
0.2050000080414094
 30
0.0
 11
0.1959391492909421
 21
0.2100000080414084
 31
0.0
  0
LINE
  5
19F6B
  8
0
 62
     0
 10
0.1202284742313431
 20
0.4442598027247211
 30
0.0
 11
0.1187011443701287
 21
0.4499598753666909
 31
0.0
  0
LINE
  5
19F6C
  8
0
 62
     0
 10
0.1843379429979723
 20
0.2050000080414103
 30
0.0
 11
0.182998197035817
 21
0.2100000080414084
 31
0.0
  0
LINE
  5
19F6D
  8
0
 62
     0
 10
0.1102152123076241
 20
0.4333335136590817
 30
0.0
 11
0.1086762660217224
 21
0.439076939388186
 31
0.0
  0
LINE
  5
19F6E
  8
0
 62
     0
 10
0.1713969907428461
 20
0.2050000080414094
 30
0.0
 11
0.1700572447806907
 21
0.2100000080414093
 31
0.0
  0
LINE
  5
19F6F
  8
0
 62
     0
 10
0.1002569889753808
 20
0.4222018177736766
 30
0.0
 11
0.098705931265477
 21
0.4279904439525089
 31
0.0
  0
LINE
  5
19F70
  8
0
 62
     0
 10
0.1584560384877198
 20
0.2050000080414094
 30
0.0
 11
0.1571162925255645
 21
0.2100000080414093
 31
0.0
  0
LINE
  5
19F71
  8
0
 62
     0
 10
0.0903551219019687
 20
0.4108597974669906
 30
0.0
 11
0.0887914308311089
 21
0.4166955719907817
 31
0.0
  0
LINE
  5
19F72
  8
0
 62
     0
 10
0.1455150862325938
 20
0.2050000080414094
 30
0.0
 11
0.1441753402704382
 21
0.2100000080414093
 31
0.0
  0
LINE
  5
19F73
  8
0
 62
     0
 10
0.0805110079860345
 20
0.3993022394422985
 30
0.0
 11
0.078934132427767
 21
0.4051872191429667
 31
0.0
  0
LINE
  5
19F74
  8
0
 62
     0
 10
0.1325741339774678
 20
0.2050000080414094
 30
0.0
 11
0.1312343880153122
 21
0.2100000080414093
 31
0.0
  0
LINE
  5
19F75
  8
0
 62
     0
 10
0.0707261297197011
 20
0.3875236109636777
 30
0.0
 11
0.0691354868641976
 21
0.3934599709171138
 31
0.0
  0
LINE
  5
19F76
  8
0
 62
     0
 10
0.1196331817223415
 20
0.2050000080414103
 30
0.0
 11
0.1182934357601859
 21
0.2100000080414102
 31
0.0
  0
LINE
  5
19F77
  8
0
 62
     0
 10
0.0610020622439367
 20
0.3755180335250072
 30
0.0
 11
0.0593970348293678
 21
0.38150807738372
 31
0.0
  0
LINE
  5
19F78
  8
0
 62
     0
 10
0.1066922294672161
 20
0.2050000080414094
 30
0.0
 11
0.1053524835050608
 21
0.2100000080414084
 31
0.0
  0
LINE
  5
19F79
  8
0
 62
     0
 10
0.0513404811914808
 20
0.3632792535797638
 30
0.0
 11
0.049720414422564
 21
0.3693254250730149
 31
0.0
  0
LINE
  5
19F7A
  8
0
 62
     0
 10
0.0937512772120899
 20
0.2050000080414103
 30
0.0
 11
0.0924115312499345
 21
0.2100000080414093
 31
0.0
  0
LINE
  5
19F7B
  8
0
 62
     0
 10
0.0417431714273171
 20
0.350800609921146
 30
0.0
 11
0.0401073695365808
 21
0.3569055056884913
 31
0.0
  0
LINE
  5
19F7C
  8
0
 62
     0
 10
0.0808103249569639
 20
0.2050000080414094
 30
0.0
 11
0.0794705789948083
 21
0.2100000080414093
 31
0.0
  0
LINE
  5
19F7D
  8
0
 62
     0
 10
0.0322120368153616
 20
0.3380749972322885
 30
0.0
 11
0.0305597592150033
 21
0.3442413811850331
 31
0.0
  0
LINE
  5
19F7E
  8
0
 62
     0
 10
0.0678142063836933
 20
0.2052058915435913
 30
0.0
 11
0.066432271833291
 21
0.2103633414984278
 31
0.0
  0
LINE
  5
19F7F
  8
0
 62
     0
 10
0.0227491111625107
 20
0.3250948252425205
 30
0.0
 11
0.0210795681255212
 21
0.3313256446819883
 31
0.0
  0
LINE
  5
19F80
  8
0
 62
     0
 10
0.0542209359747485
 20
0.2076403760363412
 30
0.0
 11
0.0526995230547358
 21
0.2133183663531204
 31
0.0
  0
LINE
  5
19F81
  8
0
 62
     0
 10
0.0133565705182883
 20
0.3118519728244609
 30
0.0
 11
0.0116689183163621
 21
0.3181503765875542
 31
0.0
  0
LINE
  5
19F82
  8
0
 62
     0
 10
0.0397493977169654
 20
0.2133526007636108
 30
0.0
 11
0.0379347319760373
 21
0.2201250255075093
 31
0.0
  0
LINE
  5
19F83
  8
0
 62
     0
 10
0.0060349839099763
 20
0.2908802147242468
 30
0.0
 11
0.0033384540115091
 21
0.3009438013094536
 31
0.0
  0
LINE
  5
19F84
  8
0
 62
     0
 10
0.0237997331852438
 20
0.2245812678452248
 30
0.0
 11
0.0211032032867644
 21
0.2346448544304787
 31
0.0
  0
ENDBLK
  5
19F86
  8
0
 62
     1
  0
BLOCK
  8
0
 62
     1
  2
*X24
 70
     1
 10
0.0
 20
0.0
 30
0.0
  3
*X24
  1

  0
LINE
  5
19FC3
  8
0
 62
     0
 10
0.3728579747406897
 20
0.005614201853736
 30
0.0
 11
0.4002961838199326
 21
0.0330524109329788
 31
0.0
  0
LINE
  5
19FC4
  8
0
 62
     0
 10
0.3692961838199347
 20
0.0462465847571405
 30
0.0
 11
0.4002961838199326
 21
0.0772465847571384
 31
0.0
  0
LINE
  5
19FC5
  8
0
 62
     0
 10
0.3692961838199338
 20
0.0904407585812992
 30
0.0
 11
0.4002961838199326
 21
0.121440758581298
 31
0.0
  0
LINE
  5
19FC6
  8
0
 62
     0
 10
0.3692961838199338
 20
0.1346349324054588
 30
0.0
 11
0.4002961838199326
 21
0.1656349324054576
 31
0.0
  0
LINE
  5
19FC7
  8
0
 62
     0
 10
0.3692961838199347
 20
0.1788291062296183
 30
0.0
 11
0.4002961838199326
 21
0.2098291062296171
 31
0.0
  0
LINE
  5
19FC8
  8
0
 62
     0
 10
0.3512729118075653
 20
0.2050000080414076
 30
0.0
 11
0.3822729118075649
 21
0.2360000080414073
 31
0.0
  0
LINE
  5
19FC9
  8
0
 62
     0
 10
0.3070787379834075
 20
0.2050000080414094
 30
0.0
 11
0.3380787379834054
 21
0.2360000080414073
 31
0.0
  0
LINE
  5
19FCA
  8
0
 62
     0
 10
0.2628845641592479
 20
0.2050000080414094
 30
0.0
 11
0.2938845641592458
 21
0.2360000080414073
 31
0.0
  0
ENDBLK
  5
19FCC
  8
0
 62
     1
  0
BLOCK
  8
0
 62
     1
  2
*X25
 70
     1
 10
0.0
 20
0.0
 30
0.0
  3
*X25
  1

  0
LINE
  5
19FCE
  8
0
 62
     0
 10
-0.1169285186363875
 20
0.4231715079679593
 30
0.0
 11
-0.1207529387665491
 21
0.4374444382032108
 31
0.0
  0
LINE
  5
19FCF
  8
0
 62
     0
 10
-0.1086085732542763
 20
0.3921210490857216
 30
0.0
 11
-0.1124329933844377
 21
0.4063939793209741
 31
0.0
  0
LINE
  5
19FD0
  8
0
 62
     0
 10
-0.1167374151898175
 20
0.3741620088814033
 30
0.0
 11
-0.1184765675712136
 21
0.3806526139308781
 31
0.0
  0
LINE
  5
19FD1
  8
0
 62
     0
 10
-0.0542689466167528
 20
0.1410265102957044
 30
0.0
 11
-0.0584770336365752
 21
0.1567313048563541
 31
0.0
  0
LINE
  5
19FD2
  8
0
 62
     0
 10
-0.1350330901068386
 20
0.4424423972304901
 30
0.0
 11
-0.1367722424882349
 21
0.4489330022799658
 31
0.0
  0
LINE
  5
19FD3
  8
0
 62
     0
 10
-0.0438483843121191
 20
0.1021364423313757
 30
0.0
 11
-0.0462880806558743
 21
0.1112415130413096
 31
0.0
  0
LINE
  5
19FD4
  8
0
 62
     0
 10
-0.1267479538122049
 20
0.3632255563168307
 30
0.0
 11
-0.1282423283072851
 21
0.3688026378580043
 31
0.0
  0
LINE
  5
19FD5
  8
0
 62
     0
 10
-0.1493680312215884
 20
0.4476448344797906
 30
0.0
 11
-0.1507826549843225
 21
0.4529242822359088
 31
0.0
  0
LINE
  5
19FD6
  8
0
 62
     0
 10
-0.0737757872128198
 20
0.1655307391809204
 30
0.0
 11
-0.0759415915742774
 21
0.173613631097135
 31
0.0
  0
LINE
  5
19FD7
  8
0
 62
     0
 10
-0.1369537508995016
 20
0.3530178182639059
 30
0.0
 11
-0.1384481253940262
 21
0.3585948998030073
 31
0.0
  0
LINE
  5
19FD8
  8
0
 62
     0
 10
-0.1624218009656895
 20
0.4480658750806282
 30
0.0
 11
-0.1637288206607048
 21
0.4529437389889184
 31
0.0
  0
LINE
  5
19FD9
  8
0
 62
     0
 10
-0.089571120893593
 20
0.1761834356856173
 30
0.0
 11
-0.0912838546714925
 21
0.1825754451645771
 31
0.0
  0
LINE
  5
19FDA
  8
0
 62
     0
 10
-0.147159547986798
 20
0.3428100802109801
 30
0.0
 11
-0.1486539224807679
 21
0.3483871617480112
 31
0.0
  0
LINE
  5
19FDB
  8
0
 62
     0
 10
-0.1745252049291071
 20
0.4449401023021782
 30
0.0
 11
-0.1758292421044976
 21
0.4498068352956937
 31
0.0
  0
LINE
  5
19FDC
  8
0
 62
     0
 10
-0.1040818997214667
 20
0.1820421082141816
 30
0.0
 11
-0.1055848496717429
 21
0.1876511937898453
 31
0.0
  0
LINE
  5
19FDD
  8
0
 62
     0
 10
-0.1573653450740935
 20
0.3326023421580553
 30
0.0
 11
-0.1588597195675081
 21
0.3381794236930133
 31
0.0
  0
LINE
  5
19FDE
  8
0
 62
     0
 10
-0.1855589659374395
 20
0.4378223676693969
 30
0.0
 11
-0.1870894738953444
 21
0.4435343011296862
 31
0.0
  0
LINE
  5
19FDF
  8
0
 62
     0
 10
-0.1177853463419245
 20
0.1848877759260876
 30
0.0
 11
-0.1191736549046143
 21
0.1900690140186283
 31
0.0
  0
LINE
  5
19FE0
  8
0
 62
     0
 10
-0.1675711421613899
 20
0.3223946041051295
 30
0.0
 11
-0.1690655166542496
 21
0.3279716856380173
 31
0.0
  0
LINE
  5
19FE1
  8
0
 62
     0
 10
-0.1961953635230289
 20
0.4292216525538653
 30
0.0
 11
-0.1976144049778346
 21
0.4345175873612464
 31
0.0
  0
LINE
  5
19FE2
  8
0
 62
     0
 10
-0.1308640657728686
 20
0.1854019300258551
 30
0.0
 11
-0.1322038117350242
 21
0.1904019300258559
 31
0.0
  0
LINE
  5
19FE3
  8
0
 62
     0
 10
-0.1777769392486861
 20
0.3121868660522029
 30
0.0
 11
-0.1792713137409911
 21
0.3177639475830203
 31
0.0
  0
LINE
  5
19FE4
  8
0
 62
     0
 10
-0.2067886684194036
 20
0.4204601133327488
 30
0.0
 11
-0.2082148997302147
 21
0.4257828810480416
 31
0.0
  0
LINE
  5
19FE5
  8
0
 62
     0
 10
-0.1438050180279948
 20
0.1854019300258551
 30
0.0
 11
-0.1451447639901502
 21
0.190401930025855
 31
0.0
  0
LINE
  5
19FE6
  8
0
 62
     0
 10
-0.1879827363359827
 20
0.3019791279992789
 30
0.0
 11
-0.1894771108277324
 21
0.3075562095280233
 31
0.0
  0
LINE
  5
19FE7
  8
0
 62
     0
 10
-0.217338218941683
 20
0.4115352805644577
 30
0.0
 11
-0.2187719288866992
 21
0.416885958922574
 31
0.0
  0
LINE
  5
19FE8
  8
0
 62
     0
 10
-0.1567459702831209
 20
0.1854019300258551
 30
0.0
 11
-0.1580857162452767
 21
0.1904019300258559
 31
0.0
  0
LINE
  5
19FE9
  8
0
 62
     0
 10
-0.1981885334232789
 20
0.2917713899463532
 30
0.0
 11
-0.1996829079144742
 21
0.2973484714730281
 31
0.0
  0
LINE
  5
19FEA
  8
0
 62
     0
 10
-0.2278433196212837
 20
0.4024445587249002
 30
0.0
 11
-0.2292848083848691
 21
0.40782426802914
 31
0.0
  0
LINE
  5
19FEB
  8
0
 62
     0
 10
-0.1696869225382469
 20
0.1854019300258551
 30
0.0
 11
-0.1710266685004027
 21
0.190401930025855
 31
0.0
  0
LINE
  5
19FEC
  8
0
 62
     0
 10
-0.2083943305105751
 20
0.2815636518934266
 30
0.0
 11
-0.2098887050012153
 21
0.2871407334180302
 31
0.0
  0
LINE
  5
19FED
  8
0
 62
     0
 10
-0.2383032392335138
 20
0.3931852188463738
 30
0.0
 11
-0.2397528191819269
 21
0.3985951248634851
 31
0.0
  0
LINE
  5
19FEE
  8
0
 62
     0
 10
-0.1826278747933732
 20
0.1854019300258551
 30
0.0
 11
-0.1839676207555287
 21
0.1904019300258541
 31
0.0
  0
LINE
  5
19FEF
  8
0
 62
     0
 10
-0.2186001275978708
 20
0.2713559138405017
 30
0.0
 11
-0.2200945020879561
 21
0.2769329953630351
 31
0.0
  0
LINE
  5
19FF0
  8
0
 62
     0
 10
-0.2487172086590486
 20
0.3837543905364873
 30
0.0
 11
-0.2501752051799306
 21
0.3891957076296784
 31
0.0
  0
LINE
  5
19FF1
  8
0
 62
     0
 10
-0.1955688270484985
 20
0.1854019300258542
 30
0.0
 11
-0.1969085730106541
 21
0.190401930025855
 31
0.0
  0
LINE
  5
19FF2
  8
0
 62
     0
 10
-0.228805924685167
 20
0.261148175787576
 30
0.0
 11
-0.2303002991746974
 21
0.2667252573080381
 31
0.0
  0
LINE
  5
19FF3
  8
0
 62
     0
 10
-0.2590844185623753
 20
0.3741490533139808
 30
0.0
 11
-0.2605511709747101
 21
0.3796230478389386
 31
0.0
  0
LINE
  5
19FF4
  8
0
 62
     0
 10
-0.2085097793036248
 20
0.1854019300258551
 30
0.0
 11
-0.2098495252657799
 21
0.1904019300258541
 31
0.0
  0
LINE
  5
19FF5
  8
0
 62
     0
 10
-0.2214507315587508
 20
0.1854019300258542
 30
0.0
 11
-0.2227904775209064
 21
0.1904019300258541
 31
0.0
  0
LINE
  5
19FF6
  8
0
 62
     0
 10
-0.2390117217724637
 20
0.2509404377346511
 30
0.0
 11
-0.2405060962614387
 21
0.2565175192530411
 31
0.0
  0
LINE
  5
19FF7
  8
0
 62
     0
 10
-0.1950570212110923
 20
0.0868992620081359
 30
0.0
 11
-0.1952252743282812
 21
0.0875271911900164
 31
0.0
  0
LINE
  5
19FF8
  8
0
 62
     0
 10
-0.2694040168681733
 20
0.3643660271904663
 30
0.0
 11
-0.2708798794102691
 21
0.3698740211825555
 31
0.0
  0
LINE
  5
19FF9
  8
0
 62
     0
 10
-0.1914404220064654
 20
0.0734019300258551
 30
0.0
 11
-0.1939991551254894
 21
0.0829512520290621
 31
0.0
  0
LINE
  5
19FFA
  8
0
 62
     0
 10
-0.2491225144048343
 20
0.2403781382289978
 30
0.0
 11
-0.2507039214511322
 21
0.2462800296732288
 31
0.0
  0
LINE
  5
19FFB
  8
0
 62
     0
 10
-0.2348262500974869
 20
0.1870237534755432
 30
0.0
 11
-0.2364076571437845
 21
0.1929256449197734
 31
0.0
  0
LINE
  5
19FFC
  8
0
 62
     0
 10
-0.2796751060142084
 20
0.354401962418085
 30
0.0
 11
-0.2811604489182173
 21
0.3599453376025083
 31
0.0
  0
LINE
  5
19FFD
  8
0
 62
     0
 10
-0.2043813742615916
 20
0.0734019300258551
 30
0.0
 11
-0.205721120223747
 21
0.078401930025855
 31
0.0
  0
LINE
  5
19FFE
  8
0
 62
     0
 10
-0.2503440816139129
 20
0.1966407978036848
 30
0.0
 11
-0.259334235591933
 21
0.2301925092175239
 31
0.0
  0
LINE
  5
19FFF
  8
0
 62
     0
 10
-0.2898967399565209
 20
0.3442533283127114
 30
0.0
 11
-0.2913919506191263
 21
0.3498335304735738
 31
0.0
  0
LINE
  5
1A000
  8
0
 62
     0
 10
-0.2173223265167179
 20
0.0734019300258559
 30
0.0
 11
-0.218662072478873
 21
0.078401930025855
 31
0.0
  0
LINE
  5
1A001
  8
0
 62
     0
 10
-0.3000679208995109
 20
0.3339164010504731
 30
0.0
 11
-0.3015734051596928
 21
0.3395349447994675
 31
0.0
  0
LINE
  5
1A002
  8
0
 62
     0
 10
-0.2302632787718439
 20
0.0734019300258559
 30
0.0
 11
-0.2316030247339995
 21
0.0784019300258558
 31
0.0
  0
LINE
  5
1A003
  8
0
 62
     0
 10
-0.3101875957198334
 20
0.323387250321538
 30
0.0
 11
-0.3117037792561013
 21
0.3290457243124898
 31
0.0
  0
LINE
  5
1A004
  8
0
 62
     0
 10
-0.2432042310269702
 20
0.0734019300258568
 30
0.0
 11
-0.2445439769891255
 21
0.078401930025855
 31
0.0
  0
LINE
  5
1A005
  8
0
 62
     0
 10
-0.3202546520487246
 20
0.3126617247091667
 30
0.0
 11
-0.321781981909939
 21
0.3183617973511366
 31
0.0
  0
LINE
  5
1A006
  8
0
 62
     0
 10
-0.2561451832820953
 20
0.0734019300258559
 30
0.0
 11
-0.2574849292442507
 21
0.0784019300258541
 31
0.0
  0
LINE
  5
1A007
  8
0
 62
     0
 10
-0.3302679139724436
 20
0.3017354356435273
 30
0.0
 11
-0.3318068602583453
 21
0.3074788613726316
 31
0.0
  0
LINE
  5
1A008
  8
0
 62
     0
 10
-0.2690861355372216
 20
0.0734019300258551
 30
0.0
 11
-0.270425881499377
 21
0.078401930025855
 31
0.0
  0
LINE
  5
1A009
  8
0
 62
     0
 10
-0.3402261373046869
 20
0.2906037397581231
 30
0.0
 11
-0.3417771950145907
 21
0.2963923659369554
 31
0.0
  0
LINE
  5
1A00A
  8
0
 62
     0
 10
-0.2820270877923478
 20
0.0734019300258559
 30
0.0
 11
-0.2833668337545032
 21
0.0784019300258558
 31
0.0
  0
LINE
  5
1A00B
  8
0
 62
     0
 10
-0.350128004378099
 20
0.2792617194514362
 30
0.0
 11
-0.3516916954489588
 21
0.2850974939752273
 31
0.0
  0
LINE
  5
1A00C
  8
0
 62
     0
 10
-0.2949680400474739
 20
0.0734019300258551
 30
0.0
 11
-0.2963077860096295
 21
0.078401930025855
 31
0.0
  0
LINE
  5
1A00D
  8
0
 62
     0
 10
-0.3599721182940332
 20
0.2677041614267441
 30
0.0
 11
-0.3615489938523007
 21
0.2735891411274123
 31
0.0
  0
LINE
  5
1A00E
  8
0
 62
     0
 10
-0.3079089923026002
 20
0.0734019300258559
 30
0.0
 11
-0.3092487382647555
 21
0.078401930025855
 31
0.0
  0
LINE
  5
1A00F
  8
0
 62
     0
 10
-0.3697569965603666
 20
0.2559255329481234
 30
0.0
 11
-0.3713476394158701
 21
0.2618618929015595
 31
0.0
  0
LINE
  5
1A010
  8
0
 62
     0
 10
-0.3208499445577262
 20
0.0734019300258559
 30
0.0
 11
-0.3221896905198818
 21
0.0784019300258558
 31
0.0
  0
LINE
  5
1A011
  8
0
 62
     0
 10
-0.379481064036131
 20
0.2439199555094529
 30
0.0
 11
-0.3810860914506999
 21
0.2499099993681657
 31
0.0
  0
LINE
  5
1A012
  8
0
 62
     0
 10
-0.3337908968128518
 20
0.0734019300258559
 30
0.0
 11
-0.3351306427750069
 21
0.0784019300258541
 31
0.0
  0
LINE
  5
1A013
  8
0
 62
     0
 10
-0.3891426450885869
 20
0.2316811755642094
 30
0.0
 11
-0.3907627118575037
 21
0.2377273470574606
 31
0.0
  0
LINE
  5
1A014
  8
0
 62
     0
 10
-0.3467318490679778
 20
0.0734019300258559
 30
0.0
 11
-0.3480715950301332
 21
0.078401930025855
 31
0.0
  0
LINE
  5
1A015
  8
0
 62
     0
 10
-0.3987399548527506
 20
0.2192025319055917
 30
0.0
 11
-0.4003757567434869
 21
0.225307427672937
 31
0.0
  0
LINE
  5
1A016
  8
0
 62
     0
 10
-0.3596728013231039
 20
0.0734019300258551
 30
0.0
 11
-0.3610125472852594
 21
0.078401930025855
 31
0.0
  0
LINE
  5
1A017
  8
0
 62
     0
 10
-0.4082710894647061
 20
0.2064769192167333
 30
0.0
 11
-0.4099233670650645
 21
0.2126433031694779
 31
0.0
  0
LINE
  5
1A018
  8
0
 62
     0
 10
-0.3726689198963744
 20
0.073607813528036
 30
0.0
 11
-0.3740508544467767
 21
0.0787652634828726
 31
0.0
  0
LINE
  5
1A019
  8
0
 62
     0
 10
-0.4177340151175571
 20
0.1934967472269662
 30
0.0
 11
-0.4194035581545466
 21
0.199727566666434
 31
0.0
  0
LINE
  5
1A01A
  8
0
 62
     0
 10
-0.3862621903053192
 20
0.0760422980207869
 30
0.0
 11
-0.3877836032253319
 21
0.0817202883375661
 31
0.0
  0
LINE
  5
1A01B
  8
0
 62
     0
 10
-0.4271265557617794
 20
0.1802538948089065
 30
0.0
 11
-0.4288142079637057
 21
0.1865522985719998
 31
0.0
  0
LINE
  5
1A01C
  8
0
 62
     0
 10
-0.4007337285631023
 20
0.0817545227480565
 30
0.0
 11
-0.4025483943040305
 21
0.088526947491955
 31
0.0
  0
LINE
  5
1A01D
  8
0
 62
     0
 10
-0.4344481423700915
 20
0.1592821367086916
 30
0.0
 11
-0.4371446722685586
 21
0.1693457232938984
 31
0.0
  0
LINE
  5
1A01E
  8
0
 62
     0
 10
-0.416683393094824
 20
0.0929831898296696
 30
0.0
 11
-0.4193799229933033
 21
0.1030467764149234
 31
0.0
  0
ENDBLK
  5
1A020
  8
0
 62
     1
  0
BLOCK
  8
0
 62
     1
  2
*X26
 70
     1
 10
0.0
 20
0.0
 30
0.0
  3
*X26
  1

  0
LINE
  5
1A05D
  8
0
 62
     0
 10
-0.067625151539378
 20
-0.1259838761618184
 30
0.0
 11
-0.0401869424601351
 21
-0.0985456670825755
 31
0.0
  0
LINE
  5
1A05E
  8
0
 62
     0
 10
-0.071186942460133
 20
-0.0853514932584139
 30
0.0
 11
-0.0401869424601351
 21
-0.0543514932584159
 31
0.0
  0
LINE
  5
1A05F
  8
0
 62
     0
 10
-0.0711869424601339
 20
-0.0411573194342552
 30
0.0
 11
-0.0401869424601351
 21
-0.0101573194342564
 31
0.0
  0
LINE
  5
1A060
  8
0
 62
     0
 10
-0.0711869424601339
 20
0.0030368543899044
 30
0.0
 11
-0.0401869424601351
 21
0.0340368543899032
 31
0.0
  0
LINE
  5
1A061
  8
0
 62
     0
 10
-0.0711869424601339
 20
0.0472310282140631
 30
0.0
 11
-0.0401869424601351
 21
0.0782310282140628
 31
0.0
  0
LINE
  5
1A062
  8
0
 62
     0
 10
-0.0892102144725025
 20
0.0734019300258533
 30
0.0
 11
-0.0582102144725028
 21
0.1044019300258538
 31
0.0
  0
LINE
  5
1A063
  8
0
 62
     0
 10
-0.1334043882966602
 20
0.0734019300258551
 30
0.0
 11
-0.1024043882966614
 21
0.1044019300258538
 31
0.0
  0
LINE
  5
1A064
  8
0
 62
     0
 10
-0.1775985621208198
 20
0.0734019300258551
 30
0.0
 11
-0.146598562120821
 21
0.1044019300258538
 31
0.0
  0
ENDBLK
  5
1A066
  8
0
 62
     1
  0
BLOCK
  8
0
 62
     1
  2
*U27
 70
     1
 10
0.0
 20
0.0
 30
0.0
  3
*U27
  1

  0
TEXT
  5
1A068
  8
DIM
 10
-0.9892415222173925
 20
-0.5237689166799388
 30
0.0
 40
0.0378374821394327
  1
.040
  7
ROMANS
  0
ENDBLK
  5
1A06A
  8
0
 62
     1
  0
BLOCK
  8
0
 62
     1
  2
*U28
 70
     1
 10
0.0
 20
0.0
 30
0.0
  3
*U28
  1

  0
TEXT
  5
1A06C
  8
DIM
 10
-1.2216405007754749
 20
-0.5856445276548749
 30
0.0
 40
0.0378374821394327
  1
.155
  7
ROMANS
  0
ENDBLK
  5
1A06E
  8
0
 62
     1
  0
BLOCK
  8
0
 62
     1
  2
*U29
 70
     1
 10
0.0
 20
0.0
 30
0.0
  3
*U29
  1

  0
TEXT
  5
1A070
  8
DIM
 10
-1.8586674266126451
 20
-0.2250263514782386
 30
0.0
 40
0.0378374821394327
  1
.350
  7
ROMANS
  0
ENDBLK
  5
1A072
  8
0
 62
     1
  0
BLOCK
  8
0
 62
     1
  2
*U30
 70
     1
 10
0.0
 20
0.0
 30
0.0
  3
*U30
  1

  0
TEXT
  5
1A074
  8
DIM
 10
-1.8586674265639489
 20
0.2749736469933226
 30
0.0
 40
0.0378374821074757
  1
.650
  7
ROMANS
  0
ENDBLK
  5
1A076
  8
0
 62
     1
  0
BLOCK
  8
0
 62
     1
  2
*U31
 70
     1
 10
0.0
 20
0.0
 30
0.0
  3
*U31
  1

  0
TEXT
  5
1A078
  8
DIM
 10
-1.344015083726164
 20
0.3149669266591035
 30
0.0
 40
0.0378374821074757
  1
.135
  7
ROMANS
  0
ENDBLK
  5
1A07A
  8
0
 62
     1
  0
BLOCK
  8
0
 62
     1
  2
*U32
 70
     1
 10
0.0
 20
0.0
 30
0.0
  3
*U32
  1

  0
TEXT
  5
1A07C
  8
DIM
 10
-1.420193320561872
 20
0.7720367635642537
 30
0.0
 40
0.0378374821074757
  1
.561
  7
ROMANS
  0
ENDBLK
  5
1A07E
  8
0
 62
     1
  0
BLOCK
  8
0
 62
     1
  2
*U33
 70
     1
 10
0.0
 20
0.0
 30
0.0
  3
*U33
  1

  0
TEXT
  5
1A080
  8
DIM
 10
-1.5093723483212651
 20
0.6830896522948661
 30
0.0
 40
0.0378374821074757
  1
.400
  7
ROMANS
  0
ENDBLK
  5
1A082
  8
0
 62
     1
  0
BLOCK
  8
0
 62
     1
  2
*U34
 70
     1
 10
0.0
 20
0.0
 30
0.0
  3
*U34
  1

  0
TEXT
  5
1A084
  8
DIM
 10
-1.511562806120925
 20
-0.2606493123473844
 30
0.0
 40
0.0378374821394327
  1
.030
  7
ROMANS
  0
ENDBLK
  5
1A086
  8
0
 62
     1
  0
BLOCK
  8
0
 62
     1
  2
*U35
 70
     1
 10
0.0
 20
0.0
 30
0.0
  3
*U35
  1

  0
TEXT
  5
1A088
  8
DIM
 10
-0.9903188125426256
 20
-0.4663770423988739
 30
0.0
 40
0.0378374821394327
  1
.018
  7
ROMANS
  0
ENDBLK
  5
1A08A
  8
0
 62
     1
  0
BLOCK
  8
0
 62
     1
  2
*U36
 70
     1
 10
0.0
 20
0.0
 30
0.0
  3
*U36
  1

  0
TEXT
  5
1A08C
  8
DIM
 10
0.0041937368089511
 20
-0.1802029974306906
 30
0.0
 40
0.0205466107727251
  1
.031
  7
ROMANS
  0
ENDBLK
  5
1A08E
  8
0
 62
     1
  0
BLOCK
  8
0
 62
     1
  2
*U37
 70
     1
 10
0.0
 20
0.0
 30
0.0
  3
*U37
  1

  0
TEXT
  5
1A090
  8
DIM
 10
-0.1369250385456288
 20
-0.2130594867630685
 30
0.0
 40
0.0205466107727251
  1
.136
  7
ROMANS
  0
ENDBLK
  5
1A092
  8
0
 62
     1
  0
BLOCK
  8
0
 62
     1
  2
*U38
 70
     1
 10
0.0
 20
0.0
 30
0.0
  3
*U38
  1

  0
TEXT
  5
1A094
  8
DIM
 10
-0.3297920214304419
 20
-0.0794736148725408
 30
0.0
 40
0.0205466107727251
  1
.030
  7
ROMANS
  0
ENDBLK
  5
1A096
  8
0
 62
     1
  0
BLOCK
  8
0
 62
     1
  2
*U39
 70
     1
 10
0.0
 20
0.0
 30
0.0
  3
*U39
  1

  0
TEXT
  5
1A098
  8
DIM
 10
-0.5378590162290207
 20
-0.0393713753605074
 30
0.0
 40
0.0205466107727251
  1
.205
  7
ROMANS
  0
ENDBLK
  5
1A09A
  8
0
 62
     1
  0
BLOCK
  8
0
 62
     1
  2
*U40
 70
     1
 10
0.0
 20
0.0
 30
0.0
  3
*U40
  1

  0
TEXT
  5
1A09C
  8
DIM
 10
-0.5378590163912774
 20
0.2531050826329779
 30
0.0
 40
0.020546610879206
  1
.380
  7
ROMANS
  0
ENDBLK
  5
1A09E
  8
0
 62
     1
  0
BLOCK
  8
0
 62
     1
  2
*U41
 70
     1
 10
0.0
 20
0.0
 30
0.0
  3
*U41
  1

  0
TEXT
  5
1A0A0
  8
DIM
 10
-0.1283530990414938
 20
0.297277898719034
 30
0.0
 40
0.020546610879206
  1
.100
  7
ROMANS
  0
ENDBLK
  5
1A0A2
  8
0
 62
     1
  0
BLOCK
  8
0
 62
     1
  2
*U42
 70
     1
 10
0.0
 20
0.0
 30
0.0
  3
*U42
  1

  0
TEXT
  5
1A0A4
  8
DIM
 10
-0.3052172133304014
 20
0.5145888671413778
 30
0.0
 40
0.020546610879206
  1
.333
  7
ROMANS
  0
ENDBLK
  5
1A0A6
  8
0
 62
     1
  0
BLOCK
  8
0
 62
     1
  2
*U43
 70
     1
 10
0.0
 20
0.0
 30
0.0
  3
*U43
  1

  0
TEXT
  5
1A0A8
  8
DIM
 10
-0.2687022825271945
 20
0.5584282145174276
 30
0.0
 40
0.020546610879206
  1
.401
  7
ROMANS
  0
ENDBLK
  5
1A0AA
  8
0
 62
     1
  0
ENDSEC
  0
SECTION
  2
ENTITIES
  0
INSERT
  5
19CAB
  8
HATCH
  6
CONTINUOUS
  2
*X25
 10
0.0
 20
0.0
 30
0.0
1001
ACAD
1000
HATCH
1002
{
1070
    19
1000
ANSI31
1040
0.1
1040
1.047197551196597
1000
R14_HATCH_DATA
1000
19CAB
1011
1.0
1021
0.0
1031
0.0
1021
0.0
1031
0.0
1011
0.0
1021
0.0
1031
0.0
1021
1.0
1031
0.0
1011
0.0
1021
0.0
1031
0.0
1021
0.0
1031
1.0
1040
0.0
1010
0.0
1020
0.0
1030
1.0
1000
ANSI31
1070
     0
1070
     0
1071
        1
1071
        1
1071
       22
1070
     2
1040
-0.1796869424601315
1040
0.0889019300258538
1040
0.0154999999999976
1040
3.141592653594147
1040
4.7123889803845751
1070
     1
1070
     1
1040
-0.1796869424601333
1040
0.0734019300258553
1040
-0.3692951576189181
1040
0.0734019300258553
1070
     2
1040
-0.3664750967844519
1040
0.147359020626846
1040
0.0740108369988696
1040
1.608908903094161
1040
3.6408329925562639
1070
     0
1070
     2
1040
0.5881332495187924
1040
-0.5298704959724611
1040
1.243962922205887
1040
3.7516289145165
1040
4.0328792373896709
1070
     0
1070
     2
1040
-0.1573302501979952
1040
0.4033548461193075
1040
0.049999999999999
1040
3.9011396146660728
1040
7.0684883882892704
1070
     0
1070
     1
1040
-0.1219715496319687
1040
0.3680028688863157
1040
-0.2462017751457104
1040
0.2437490169379342
1070
     2
1040
-0.2241046882336324
1040
0.2216519300258535
1040
0.0312499999999996
1040
2.356194490192284
1040
4.7123889803846319
1070
     1
1070
     1
1040
-0.2241046882336342
1040
0.1904019300258544
1040
-0.1238731534886703
1040
0.1904019300258553
1070
     2
1040
-0.1277343995044129
1040
0.1025600132856141
1040
0.0879267397177533
1040
4.7563174617116948
1040
6.376101681173445
1070
     0
1070
     2
1040
-0.0501869424601322
1040
0.0944019300258534
1040
0.0100000000000007
1040
0.0000000000000888
1040
1.5707963267949849
1070
     1
1070
     1
1040
-0.0501869424601331
1040
0.1044019300258541
1040
-0.0557755336588564
1040
0.1044019300258541
1070
     2
1040
-0.0557755336588572
1040
0.114401930025853
1040
0.0099999999999989
1040
4.7123889803847776
1040
6.4462885063767441
1070
     1
1070
     2
1040
-0.1277343995044098
1040
0.102560013285615
1040
0.0829267397177523
1040
0.1631031991970236
1040
1.5255626922921439
1070
     1
1070
     1
1040
-0.1239846007072671
1040
0.1854019300258545
1040
-0.2241046882336342
1040
0.1854019300258545
1070
     2
1040
-0.2241046882336324
1040
0.2216519300258535
1040
0.036249999999999
1040
1.570796326794945
1040
3.9269908169872929
1070
     0
1070
     1
1040
-0.2497373090516426
1040
0.2472845508438664
1040
-0.1255074196885708
1040
0.3715380666096151
1070
     2
1040
-0.1573302501979956
1040
0.4033548461193075
1040
0.0449999999999996
1040
5.4978822260699189
1040
8.3836092095333985
1070
     1
1070
     2
1040
0.588133249518787
1040
-0.5298704959724521
1040
1.2389629222058769
1040
2.2395812353822651
1040
2.5313288967858001
1070
     1
1070
     2
1040
-0.3664750967844519
1040
0.1473590206268709
1040
0.0690108369988956
1040
2.6463041639791398
1040
4.6729196987538169
1070
     1
1070
     1
1040
-0.3691981977982515
1040
0.0784019300258543
1040
-0.2051869424601271
1040
0.0784019300258543
1070
     2
1040
-0.205186942460128
1040
0.0884019300258532
1040
0.0099999999999989
1040
4.7123889803847776
1040
6.283185307179675
1070
     1
1070
     1
1040
-0.1951869424601291
1040
0.0884019300258541
1040
-0.1951869424601291
1040
0.0889019300257863
1071
        0
1070
     0
1070
     1
1040
1.047197551196597
1040
0.1
1070
     0
1070
     1
1040
1.8325957145940439
1040
-4.0301057784652086
1040
-5.5468722392849017
1040
-0.0120740728286134
1040
-0.0032352380637815
1070
     0
1071
        1
1040
-3.9438137665677568
1040
-6.3687628678712782
1040
0.0
1002
}
  0
POLYLINE
  5
19CAC
  8
PART
 66
     1
 10
0.0
 20
0.0
 30
0.0
 70
     1
  0
VERTEX
  5
1A021
  8
PART
 10
-0.1951869424601291
 20
0.0889019300257863
 30
0.0
 42
0.4142135623717964
  0
VERTEX
  5
1A022
  8
PART
 10
-0.1796869424601333
 20
0.0734019300258553
 30
0.0
  0
VERTEX
  5
1A023
  8
PART
 10
-0.1796869424601333
 20
0.0734019300258553
 30
0.0
  0
VERTEX
  5
1A024
  8
PART
 10
-0.3692951576189181
 20
0.0734019300258553
 30
0.0
 42
-0.5567110224304787
  0
VERTEX
  5
1A025
  8
PART
 10
-0.431452652795425
 20
0.1827923553289896
 30
0.0
 42
-0.0704286821478413
  0
VERTEX
  5
1A026
  8
PART
 10
-0.1935876524267961
 20
0.4377844958941577
 30
0.0
 42
-1.012961699927472
  0
VERTEX
  5
1A027
  8
PART
 10
-0.1219715496319687
 20
0.3680028688863157
 30
0.0
  0
VERTEX
  5
1A028
  8
PART
 10
-0.2462017751457104
 20
0.2437490169379342
 30
0.0
 42
0.6681786379192976
  0
VERTEX
  5
1A029
  8
PART
 10
-0.2241046882336342
 20
0.1904019300258544
 30
0.0
  0
VERTEX
  5
1A02A
  8
PART
 10
-0.1238731534886703
 20
0.1904019300258553
 30
0.0
 42
-0.4286356663443195
  0
VERTEX
  5
1A02B
  8
PART
 10
-0.0401869424601316
 20
0.0944019300258543
 30
0.0
 42
0.4142135623730951
  0
VERTEX
  5
1A02C
  8
PART
 10
-0.0501869424601331
 20
0.1044019300258541
 30
0.0
  0
VERTEX
  5
1A02D
  8
PART
 10
-0.0557755336588564
 20
0.1044019300258541
 30
0.0
 42
0.4628335182916822
  0
VERTEX
  5
1A02E
  8
PART
 10
-0.0459082523126675
 20
0.1160257400009155
 30
0.0
 42
0.3544288408611282
  0
VERTEX
  5
1A02F
  8
PART
 10
-0.1239846007072671
 20
0.1854019300258545
 30
0.0
  0
VERTEX
  5
1A030
  8
PART
 10
-0.1239846007072671
 20
0.1854019300258545
 30
0.0
  0
VERTEX
  5
1A031
  8
PART
 10
-0.2241046882336342
 20
0.1854019300258545
 30
0.0
 42
-0.6681786379192976
  0
VERTEX
  5
1A032
  8
PART
 10
-0.2497373090516426
 20
0.2472845508438664
 30
0.0
  0
VERTEX
  5
1A033
  8
PART
 10
-0.1255074196885708
 20
0.3715380666096151
 30
0.0
 42
0.879604200191723
  0
VERTEX
  5
1A034
  8
PART
 10
-0.1800647891050602
 20
0.4421896338834135
 30
0.0
 42
0.0730665276077255
  0
VERTEX
  5
1A035
  8
PART
 10
-0.4271930140940086
 20
0.1801588703350323
 30
0.0
 42
0.554973849895844
  0
VERTEX
  5
1A036
  8
PART
 10
-0.3691981977982515
 20
0.0784019300258543
 30
0.0
  0
VERTEX
  5
1A037
  8
PART
 10
-0.2051869424601271
 20
0.0784019300258543
 30
0.0
 42
0.4142135623730951
  0
VERTEX
  5
1A038
  8
PART
 10
-0.1951869424601291
 20
0.0884019300258541
 30
0.0
  0
SEQEND
  5
1A039
  8
PART
  0
POLYLINE
  5
19CAD
  8
PART
 66
     1
 10
0.0
 20
0.0
 30
0.0
 70
     1
  0
VERTEX
  5
1A03A
  8
PART
 10
-0.1239846007072671
 20
0.1854019300258545
 30
0.0
  0
VERTEX
  5
1A03B
  8
PART
 10
-0.2241046882336342
 20
0.1854019300258545
 30
0.0
 42
-0.6681786379192976
  0
VERTEX
  5
1A03C
  8
PART
 10
-0.2497373090516426
 20
0.2472845508438664
 30
0.0
  0
VERTEX
  5
1A03D
  8
PART
 10
-0.1255074196885708
 20
0.3715380666096151
 30
0.0
 42
0.879604200191723
  0
VERTEX
  5
1A03E
  8
PART
 10
-0.1800647891050602
 20
0.4421896338834135
 30
0.0
 42
0.0730665276077255
  0
VERTEX
  5
1A03F
  8
PART
 10
-0.4271930140940086
 20
0.1801588703350323
 30
0.0
 42
0.554973849895844
  0
VERTEX
  5
1A040
  8
PART
 10
-0.3691981977982515
 20
0.0784019300258543
 30
0.0
  0
VERTEX
  5
1A041
  8
PART
 10
-0.2051869424601271
 20
0.0784019300258543
 30
0.0
 42
0.4142135623730951
  0
VERTEX
  5
1A042
  8
PART
 10
-0.1951869424601291
 20
0.0884019300258541
 30
0.0
 42
-0.423328427043591
  0
VERTEX
  5
1A043
  8
PART
 10
-0.1796869424601333
 20
0.1044019300258541
 30
0.0
  0
VERTEX
  5
1A044
  8
PART
 10
-0.0557755336588599
 20
0.1044019300258541
 30
0.0
 42
0.4628335182916747
  0
VERTEX
  5
1A045
  8
PART
 10
-0.0459082523126675
 20
0.1160257400009155
 30
0.0
 42
0.3544288408611282
  0
VERTEX
  5
1A046
  8
PART
 10
-0.1239846007072671
 20
0.1854019300258545
 30
0.0
 42
0.3544288408611282
  0
SEQEND
  5
1A047
  8
PART
  0
CIRCLE
  5
19CAE
  8
HATCH
 10
-0.2710248505929549
 20
0.1131358091902419
 30
0.0
 40
0.00225
  0
CIRCLE
  5
19CAF
  8
HATCH
 10
-0.38630794956428
 20
0.1144301194477919
 30
0.0
 40
0.0045
  0
LINE
  5
19CB0
  8
HATCH
 10
-0.3445123353462485
 20
0.0957777770542869
 30
0.0
 11
-0.3445123353462485
 21
0.0957777770542869
 31
0.0
  0
CIRCLE
  5
19CB1
  8
HATCH
 10
-0.3539774793740271
 20
0.1013039047529276
 30
0.0
 40
0.00225
  0
LINE
  5
19CB2
  8
HATCH
 10
-0.2937096900393179
 20
0.1057984737384647
 30
0.0
 11
-0.2937096900393179
 21
0.1057984737384647
 31
0.0
  0
CIRCLE
  5
19CB3
  8
HATCH
 10
-0.2848836659115115
 20
0.0940871652355286
 30
0.0
 40
0.0045
  0
LINE
  5
19CB4
  8
HATCH
 10
-0.3259332413687197
 20
0.2386699672633583
 30
0.0
 11
-0.3259332413687197
 21
0.2386699672633583
 31
0.0
  0
CIRCLE
  5
19CB5
  8
HATCH
 10
-0.3570197678123854
 20
0.1230739379970196
 30
0.0
 40
0.00225
  0
LINE
  5
19CB6
  8
HATCH
 10
-0.3414913740470986
 20
0.1208521744120026
 30
0.0
 11
-0.3414913740470986
 21
0.1208521744120026
 31
0.0
  0
LINE
  5
19CB7
  8
HATCH
 10
-0.3727413740470986
 20
0.1208521744120026
 30
0.0
 11
-0.3727413740470986
 21
0.1208521744120026
 31
0.0
  0
CIRCLE
  5
19CB8
  8
HATCH
 10
-0.3405623921574481
 20
0.1680979843886494
 30
0.0
 40
0.00225
  0
CIRCLE
  5
19CB9
  8
HATCH
 10
-0.3435940098119481
 20
0.2230792527039747
 30
0.0
 40
0.003375
  0
CIRCLE
  5
19CBA
  8
HATCH
 10
-0.3509565180748773
 20
0.1888783021106433
 30
0.0
 40
0.00225
  0
LINE
  5
19CBB
  8
HATCH
 10
-0.3414913740470986
 20
0.1833521744120026
 30
0.0
 11
-0.3414913740470986
 21
0.1833521744120026
 31
0.0
  0
LINE
  5
19CBC
  8
HATCH
 10
-0.3258663740470986
 20
0.2146021744120026
 30
0.0
 11
-0.3258663740470986
 21
0.2146021744120026
 31
0.0
  0
CIRCLE
  5
19CBD
  8
HATCH
 10
-0.3583172291669712
 20
0.1649239966897877
 30
0.0
 40
0.00225
  0
CIRCLE
  5
19CBE
  8
HATCH
 10
-0.3847374273065149
 20
0.1663662894836755
 30
0.0
 40
0.00225
  0
LINE
  5
19CBF
  8
HATCH
 10
-0.3727413740470986
 20
0.1833521744120026
 30
0.0
 11
-0.3727413740470986
 21
0.1833521744120026
 31
0.0
  0
LINE
  5
19CC0
  8
HATCH
 10
-0.3571163740470986
 20
0.2146021744120026
 30
0.0
 11
-0.3571163740470986
 21
0.2146021744120026
 31
0.0
  0
LINE
  5
19CC1
  8
HATCH
 10
-0.3837847879356637
 20
0.1974446050517751
 30
0.0
 11
-0.3837847879356637
 21
0.1974446050517751
 31
0.0
  0
LINE
  5
19CC2
  8
HATCH
 10
-0.3258663740470986
 20
0.1521021744120026
 30
0.0
 11
-0.3258663740470986
 21
0.1521021744120026
 31
0.0
  0
CIRCLE
  5
19CC3
  8
HATCH
 10
-0.3932499319634424
 20
0.2029707327504158
 30
0.0
 40
0.00225
  0
LINE
  5
19CC4
  8
HATCH
 10
-0.3883663740470986
 20
0.1521021744120026
 30
0.0
 11
-0.3883663740470986
 21
0.1521021744120026
 31
0.0
  0
CIRCLE
  5
19CC5
  8
HATCH
 10
-0.4123826657630368
 20
0.1315019704095814
 30
0.0
 40
0.00225
  0
LINE
  5
19CC6
  8
HATCH
 10
-0.4029175217352581
 20
0.1259758427109407
 30
0.0
 11
-0.4029175217352581
 21
0.1259758427109407
 31
0.0
  0
CIRCLE
  5
19CC7
  8
HATCH
 10
-0.2216825417728856
 20
0.1393074660926763
 30
0.0
 40
0.00225
  0
CIRCLE
  5
19CC8
  8
HATCH
 10
-0.2355413570914386
 20
0.120258822137963
 30
0.0
 40
0.0045
  0
CIRCLE
  5
19CC9
  8
HATCH
 10
-0.2900807432987342
 20
0.1200625888101376
 30
0.0
 40
0.00225
  0
CIRCLE
  5
19CCA
  8
HATCH
 10
-0.2593207953662464
 20
0.1707594580810394
 30
0.0
 40
0.00225
  0
LINE
  5
19CCB
  8
HATCH
 10
-0.2498556513384678
 20
0.1652333303823987
 30
0.0
 11
-0.2498556513384678
 21
0.1652333303823987
 31
0.0
  0
LINE
  5
19CCC
  8
HATCH
 10
-0.2443673812192486
 20
0.1319701306408991
 30
0.0
 11
-0.2443673812192486
 21
0.1319701306408991
 31
0.0
  0
CIRCLE
  5
19CCD
  8
HATCH
 10
-0.2842609008189036
 20
0.1680979738198023
 30
0.0
 40
0.00225
  0
CIRCLE
  5
19CCE
  8
HATCH
 10
-0.285127073169189
 20
0.2226463369043661
 30
0.0
 40
0.00225
  0
LINE
  5
19CCF
  8
HATCH
 10
-0.2789913740470986
 20
0.1833521744120026
 30
0.0
 11
-0.2789913740470986
 21
0.1833521744120026
 31
0.0
  0
CIRCLE
  5
19CD0
  8
HATCH
 10
-0.2929226676072609
 20
0.1369274866679639
 30
0.0
 40
0.00225
  0
LINE
  5
19CD1
  8
HATCH
 10
-0.2946163740470986
 20
0.1521021744120026
 30
0.0
 11
-0.2946163740470986
 21
0.1521021744120026
 31
0.0
  0
CIRCLE
  5
19CD2
  8
HATCH
 10
-0.2407384344786649
 20
0.146234245712572
 30
0.0
 40
0.00225
  0
LINE
  5
19CD3
  8
HATCH
 10
-0.3102413740470986
 20
0.1208521744120026
 30
0.0
 11
-0.3102413740470986
 21
0.1208521744120026
 31
0.0
  0
CIRCLE
  5
19CD4
  8
HATCH
 10
-0.3124116464881759
 20
0.1451530348243797
 30
0.0
 40
0.003375
  0
CIRCLE
  5
19CD5
  8
HATCH
 10
-0.3163094364929577
 20
0.1741589007027884
 30
0.0
 40
0.0045
  0
CIRCLE
  5
19CD6
  8
HATCH
 10
-0.3171072172409133
 20
0.2269586587604213
 30
0.0
 40
0.0045
  0
LINE
  5
19CD7
  8
HATCH
 10
-0.3102413740470986
 20
0.1833521744120026
 30
0.0
 11
-0.3102413740470986
 21
0.1833521744120026
 31
0.0
  0
POLYLINE
  5
19CD8
  8
PART
 66
     1
 10
0.0
 20
0.0
 30
0.0
 70
     1
  0
VERTEX
  5
1A048
  8
PART
 10
-0.0711869424601339
 20
-0.1160980699741454
 30
0.0
  0
VERTEX
  5
1A049
  8
PART
 10
-0.0711869424601339
 20
0.0634019300258546
 30
0.0
 42
0.4142135623730951
  0
VERTEX
  5
1A04A
  8
PART
 10
-0.0811869424601319
 20
0.0734019300258544
 30
0.0
  0
VERTEX
  5
1A04B
  8
PART
 10
-0.1796869424601333
 20
0.0734019300258553
 30
0.0
 42
-0.9999999999999714
  0
VERTEX
  5
1A04C
  8
PART
 10
-0.1796869424601333
 20
0.1044019300258541
 30
0.0
  0
VERTEX
  5
1A04D
  8
PART
 10
-0.0501869424601331
 20
0.1044019300258541
 30
0.0
 42
-0.4142135623730951
  0
VERTEX
  5
1A04E
  8
PART
 10
-0.0401869424601351
 20
0.0944019300258543
 30
0.0
  0
VERTEX
  5
1A04F
  8
PART
 10
-0.0401869424601351
 20
-0.1160980699741454
 30
0.0
 42
-1.000000000000014
  0
SEQEND
  5
1A050
  8
PART
  0
POINT
  5
19CD9
  8
HATCH
  6
BYBLOCK
 10
-0.1487372060555963
 20
0.1044019300258541
 30
0.0
  0
POINT
  5
19CDA
  8
HATCH
  6
BYBLOCK
 10
-0.1487372060555963
 20
0.1044019300258541
 30
0.0
  0
LINE
  5
19CDB
  8
HATCH
  6
BYBLOCK
 10
-0.1607372060555967
 20
0.1044019300258541
 30
0.0
 11
-0.1607372060555967
 21
0.1044019300258541
 31
0.0
  0
CIRCLE
  5
19CDC
  8
HATCH
 10
-0.0975842805333862
 20
0.1232786310214344
 30
0.0
 40
0.0045
  0
CIRCLE
  5
19CDD
  8
HATCH
 10
-0.133447551347782
 20
0.1677396538331799
 30
0.0
 40
0.00225
  0
LINE
  5
19CDE
  8
HATCH
 10
-0.1239824073200033
 20
0.1622135261345392
 30
0.0
 11
-0.1239824073200033
 21
0.1622135261345392
 31
0.0
  0
LINE
  5
19CDF
  8
HATCH
 10
-0.1064103046611926
 20
0.1349899395243705
 30
0.0
 11
-0.1064103046611926
 21
0.1349899395243705
 31
0.0
  0
LINE
  5
19CE0
  8
HATCH
 10
-0.1159265210697775
 20
0.1259758427109407
 30
0.0
 11
-0.1159265210697775
 21
0.1259758427109407
 31
0.0
  0
CIRCLE
  5
19CE1
  8
HATCH
 10
-0.1253916650975562
 20
0.1315019704095814
 30
0.0
 40
0.00225
  0
CIRCLE
  5
19CE2
  8
HATCH
 10
-0.1027813579206089
 20
0.1492540545960435
 30
0.0
 40
0.00225
  0
CIRCLE
  5
19CE3
  8
HATCH
 10
-0.2059505402568114
 20
0.1224425530303919
 30
0.0
 40
0.00225
  0
LINE
  5
19CE4
  8
HATCH
 10
-0.1964853962290327
 20
0.1169164253317512
 30
0.0
 11
-0.1964853962290327
 21
0.1169164253317512
 31
0.0
  0
CIRCLE
  5
19CE5
  8
HATCH
 10
-0.1999086239870173
 20
0.1707594580810394
 30
0.0
 40
0.00225
  0
LINE
  5
19CE6
  8
HATCH
 10
-0.1904434799592387
 20
0.1652333303823987
 30
0.0
 11
-0.1904434799592387
 21
0.1652333303823987
 31
0.0
  0
LINE
  5
19CE7
  8
HATCH
 10
-0.1688434310110658
 20
0.138009743772231
 30
0.0
 11
-0.1688434310110658
 21
0.138009743772231
 31
0.0
  0
CIRCLE
  5
19CE8
  8
HATCH
 10
-0.1652144842704821
 20
0.152273858843903
 30
0.0
 40
0.00225
  0
CIRCLE
  5
19CE9
  8
HATCH
 10
-0.1600174068832594
 20
0.126298435269294
 30
0.0
 40
0.0045
  0
CIRCLE
  5
19CEA
  8
HATCH
 10
-0.1461585915647028
 20
0.1453470792240072
 30
0.0
 40
0.00225
  0
CIRCLE
  5
19CEB
  8
HATCH
 10
-0.0837254652148296
 20
0.1423272749761477
 30
0.0
 40
0.00225
  0
CIRCLE
  5
19CEC
  8
HATCH
 10
-0.2099784865461736
 20
0.3891921445865372
 30
0.0
 40
0.00225
  0
CIRCLE
  5
19CED
  8
HATCH
 10
-0.322304294628136
 20
0.2529340823350303
 30
0.0
 40
0.00225
  0
LINE
  5
19CEE
  8
HATCH
 10
-0.3364564490960227
 20
0.2507945233630038
 30
0.0
 11
-0.3364564490960227
 21
0.2507945233630038
 31
0.0
  0
CIRCLE
  5
19CEF
  8
HATCH
 10
-0.3459215931238013
 20
0.2563206510616445
 30
0.0
 40
0.00225
  0
LINE
  5
19CF0
  8
HATCH
 10
-0.2226670312886405
 20
0.306157646051344
 30
0.0
 11
-0.2226670312886405
 21
0.306157646051344
 31
0.0
  0
CIRCLE
  5
19CF1
  8
HATCH
 10
-0.2176545954835198
 20
0.3517005394668431
 30
0.0
 40
0.00225
  0
CIRCLE
  5
19CF2
  8
HATCH
 10
-0.2321321753164192
 20
0.3116837737499847
 30
0.0
 40
0.00225
  0
LINE
  5
19CF3
  8
HATCH
 10
-0.2403394349298829
 20
0.3443632040150668
 30
0.0
 11
-0.2403394349298829
 21
0.3443632040150668
 31
0.0
  0
CIRCLE
  5
19CF4
  8
HATCH
 10
-0.2367104881892992
 20
0.3586273190867388
 30
0.0
 40
0.00225
  0
CIRCLE
  5
19CF5
  8
HATCH
 10
-0.3032484019223567
 20
0.2460073027151346
 30
0.0
 40
0.00225
  0
LINE
  5
19CF6
  8
HATCH
 10
-0.2589185289074116
 20
0.3353491118372489
 30
0.0
 11
-0.2589185289074116
 21
0.3353491118372489
 31
0.0
  0
LINE
  5
19CF7
  8
HATCH
 10
-0.2800652326874378
 20
0.3222632810682253
 30
0.0
 11
-0.2800652326874378
 21
0.3222632810682253
 31
0.0
  0
CIRCLE
  5
19CF8
  8
HATCH
 10
-0.2895303767152164
 20
0.327789408766866
 30
0.0
 40
0.00225
  0
CIRCLE
  5
19CF9
  8
HATCH
 10
-0.2683836729351903
 20
0.3408752395358896
 30
0.0
 40
0.00225
  0
CIRCLE
  5
19CFA
  8
HATCH
 10
-0.2488711618227093
 20
0.2993572210263633
 30
0.0
 40
0.00225
  0
LINE
  5
19CFB
  8
HATCH
 10
-0.2715560012690723
 20
0.292019885574587
 30
0.0
 11
-0.2715560012690723
 21
0.292019885574587
 31
0.0
  0
LINE
  5
19CFC
  8
HATCH
 10
-0.3047865375886936
 20
0.2869868769496169
 30
0.0
 11
-0.3047865375886936
 21
0.2869868769496169
 31
0.0
  0
CIRCLE
  5
19CFD
  8
HATCH
 10
-0.3011575908481099
 20
0.3012509920212889
 30
0.0
 40
0.00225
  0
CIRCLE
  5
19CFE
  8
HATCH
 10
-0.2821016981423305
 20
0.2943242124013932
 30
0.0
 40
0.00225
  0
CIRCLE
  5
19CFF
  8
HATCH
 10
-0.2959605134608871
 20
0.2752755684466799
 30
0.0
 40
0.0045
  0
CIRCLE
  5
19D00
  8
HATCH
 10
-0.2627299771412659
 20
0.28030857707165
 30
0.0
 40
0.0045
  0
CIRCLE
  5
19D01
  8
HATCH
 10
-0.2679270545284886
 20
0.306284000646259
 30
0.0
 40
0.00225
  0
CIRCLE
  5
19D02
  8
HATCH
 10
-0.2315134108020764
 20
0.3326518955121298
 30
0.0
 40
0.0045
  0
LINE
  5
19D03
  8
HATCH
 10
-0.1809272635506573
 20
0.3685216565403906
 30
0.0
 11
-0.1809272635506573
 21
0.3685216565403906
 31
0.0
  0
CIRCLE
  5
19D04
  8
HATCH
 10
-0.1721012394228474
 20
0.3568103480374536
 30
0.0
 40
0.0045
  0
LINE
  5
19D05
  8
HATCH
 10
-0.1954784112388204
 20
0.3272962943288074
 30
0.0
 11
-0.1954784112388204
 21
0.3272962943288074
 31
0.0
  0
CIRCLE
  5
19D06
  8
HATCH
 10
-0.204943555266599
 20
0.332822422027448
 30
0.0
 40
0.00225
  0
CIRCLE
  5
19D07
  8
HATCH
 10
-0.1371308854369921
 20
0.3910459643928104
 30
0.0
 40
0.0045
  0
CIRCLE
  5
19D08
  8
HATCH
 10
-0.1421306516038427
 20
0.4231692971720655
 30
0.0
 40
0.00225
  0
CIRCLE
  5
19D09
  8
HATCH
 10
-0.1582424241042943
 20
0.3758589919921669
 30
0.0
 40
0.00225
  0
LINE
  5
19D0A
  8
HATCH
 10
-0.1648154910502093
 20
0.4158319617202884
 30
0.0
 11
-0.1648154910502093
 21
0.4158319617202884
 31
0.0
  0
CIRCLE
  5
19D0B
  8
HATCH
 10
-0.1809434843153674
 20
0.4142815282529064
 30
0.0
 40
0.00225
  0
LINE
  5
19D0C
  8
HATCH
 10
-0.2005133425183985
 20
0.3836660168878965
 30
0.0
 11
-0.2005133425183985
 21
0.3836660168878965
 31
0.0
  0
CIRCLE
  5
19D0D
  8
HATCH
 10
-0.1772983168100701
 20
0.3827857716120626
 30
0.0
 40
0.00225
  0
CIRCLE
  5
19D0E
  8
HATCH
 10
-0.1611865443096221
 20
0.4300960767919613
 30
0.0
 40
0.00225
  0
POLYLINE
  5
19D0F
  8
PART
 66
     1
 10
0.0
 20
0.0
 30
0.0
 70
     1
  0
VERTEX
  5
1A051
  8
PART
 10
-0.0711869424601339
 20
-0.0865013753077608
 30
0.0
  0
VERTEX
  5
1A052
  8
PART
 10
-0.1609369424601326
 20
-0.0346841886479925
 30
0.0
  0
VERTEX
  5
1A053
  8
PART
 10
-0.1759369424601331
 20
-0.0606649507615262
 30
0.0
  0
VERTEX
  5
1A054
  8
PART
 10
-0.0703976841202234
 20
-0.121598069974145
 30
0.0
 42
-0.0802952394143259
  0
VERTEX
  5
1A055
  8
PART
 10
-0.0711869424601339
 20
-0.1167150299568955
 30
0.0
  0
SEQEND
  5
1A056
  8
PART
  0
POLYLINE
  5
19D10
  8
PART
 66
     1
 10
0.0
 20
0.0
 30
0.0
 70
     1
  0
VERTEX
  5
1A057
  8
PART
 10
-0.0711869424601339
 20
-0.0065013753077607
 30
0.0
  0
VERTEX
  5
1A058
  8
PART
 10
-0.1609369424601326
 20
0.0453158113520076
 30
0.0
  0
VERTEX
  5
1A059
  8
PART
 10
-0.1759369424601331
 20
0.0193350492384739
 30
0.0
  0
VERTEX
  5
1A05A
  8
PART
 10
-0.0711869424601339
 20
-0.041598069974145
 30
0.0
  0
SEQEND
  5
1A05B
  8
PART
  0
INSERT
  5
19D11
  8
HATCH
  6
CONTINUOUS
  2
*X26
 10
0.0
 20
0.0
 30
0.0
1001
ACAD
1000
HATCH
1002
{
1070
    19
1000
ANSI31
1040
0.25
1040
0.0
1000
R14_HATCH_DATA
1000
19D11
1011
1.0
1021
0.0
1031
0.0
1021
0.0
1031
0.0
1011
0.0
1021
0.0
1031
0.0
1021
1.0
1031
0.0
1011
0.0
1021
0.0
1031
0.0
1021
0.0
1031
1.0
1040
0.0
1010
0.0
1020
0.0
1030
1.0
1000
ANSI31
1070
     0
1070
     0
1071
        1
1071
        1
1071
        8
1070
     1
1040
-0.0711869424601339
1040
-0.1160980699741454
1040
-0.0711869424601339
1040
0.0634019300258546
1070
     2
1040
-0.0811869424601328
1040
0.0634019300258555
1040
0.0099999999999989
1040
6.2831853071794974
1040
7.8539816339743931
1070
     1
1070
     1
1040
-0.0811869424601319
1040
0.0734019300258544
1040
-0.1796869424601333
1040
0.0734019300258553
1070
     2
1040
-0.1796869424601328
1040
0.0889019300258547
1040
0.0154999999999994
1040
1.5707963267949241
1040
4.7123889803846613
1070
     0
1070
     1
1040
-0.1796869424601333
1040
0.1044019300258541
1040
-0.0501869424601331
1040
0.1044019300258541
1070
     2
1040
-0.050186942460134
1040
0.0944019300258552
1040
0.0099999999999989
1040
4.7123889803847776
1040
6.283185307179675
1070
     0
1070
     1
1040
-0.0401869424601351
1040
0.0944019300258543
1040
-0.0401869424601351
1040
-0.1160980699741454
1070
     2
1040
-0.0556869424601345
1040
-0.1160980699741454
1040
0.0154999999999994
1040
6.2831853071795862
1040
9.4247779607693793
1070
     0
1071
        0
1070
     0
1070
     1
1040
0.0
1040
0.25
1070
     0
1070
     1
1040
0.7853981633974483
1040
-4.0301057784652086
1040
-5.5468722392849017
1040
-0.0220970869120796
1040
0.0220970869120796
1070
     0
1071
        1
1040
-4.0301057784652086
1040
-5.5468722392849017
1040
0.0
1002
}
  0
VIEWPORT
  5
B94C
 67
     1
  8
0
 10
4.2500000197906047
 20
5.499999966006726
 30
0.0
 40
22.896723563831479
 41
11.072807056794691
 68
     1
 69
     1
1001
ACAD
1000
MVIEW
1002
{
1070
    16
1010
0.0
1020
0.0
1030
0.0
1010
0.0
1020
0.0
1030
1.0
1040
0.0
1040
11.072807056794691
1040
4.2500000197906047
1040
5.499999966006726
1040
50.0
1040
0.0
1040
0.0
1070
     0
1070
   500
1070
     1
1070
     1
1070
     0
1070
     0
1070
     0
1070
     0
1040
0.0
1040
0.0
1040
0.0
1040
0.5
1040
0.5
1040
0.5
1040
0.5
1070
     0
1002
{
1002
}
1002
}
  0
ENDSEC
  0
EOF
