  0
SECTION
  2
HEADER
  9
$ACADVER
  1
AC1009
  9
$INSBASE
 10
0.0
 20
0.0
 30
0.0
  9
$EXTMIN
 10
-0.3611149922479691
 20
-0.076394430050569
 30
0.0
  9
$EXTMAX
 10
-0.0688335250913193
 20
0.4338269534050021
 30
0.0
  9
$LIMMIN
 10
0.0
 20
0.0
  9
$LIMMAX
 10
1.1999999999999991
 20
1.0
  9
$ORTHOMODE
 70
     1
  9
$REGENMODE
 70
     1
  9
$FILLMODE
 70
     1
  9
$QTEXTMODE
 70
     0
  9
$MIRRTEXT
 70
     1
  9
$DRAGMODE
 70
     2
  9
$LTSCALE
 40
1.0
  9
$OSMODE
 70
    47
  9
$ATTMODE
 70
     1
  9
$TEXTSIZE
 40
0.125
  9
$TRACEWID
 40
0.05
  9
$TEXTSTYLE
  7
STANDARD
  9
$CLAYER
  8
PART
  9
$CELTYPE
  6
BYLAYER
  9
$CECOLOR
 62
     1
  9
$DIMSCALE
 40
0.0
  9
$DIMASZ
 40
0.125
  9
$DIMEXO
 40
0.05
  9
$DIMDLI
 40
0.02
  9
$DIMRND
 40
0.0
  9
$DIMDLE
 40
0.0
  9
$DIMEXE
 40
0.05
  9
$DIMTP
 40
0.005
  9
$DIMTM
 40
0.005
  9
$DIMTXT
 40
0.125
  9
$DIMCEN
 40
0.02
  9
$DIMTSZ
 40
0.0
  9
$DIMTOL
 70
     0
  9
$DIMLIM
 70
     0
  9
$DIMTIH
 70
     1
  9
$DIMTOH
 70
     1
  9
$DIMSE1
 70
     0
  9
$DIMSE2
 70
     0
  9
$DIMTAD
 70
     0
  9
$DIMZIN
 70
     4
  9
$DIMBLK
  1

  9
$DIMASO
 70
     1
  9
$DIMSHO
 70
     1
  9
$DIMPOST
  1

  9
$DIMAPOST
  1

  9
$DIMALT
 70
     0
  9
$DIMALTD
 70
     1
  9
$DIMALTF
 40
25.399999999999999
  9
$DIMLFAC
 40
1.0
  9
$DIMTOFL
 70
     0
  9
$DIMTVP
 40
0.0
  9
$DIMTIX
 70
     0
  9
$DIMSOXD
 70
     0
  9
$DIMSAH
 70
     0
  9
$DIMBLK1
  1

  9
$DIMBLK2
  1

  9
$DIMSTYLE
  2
SCOTTG
  9
$DIMCLRD
 70
   256
  9
$DIMCLRE
 70
   256
  9
$DIMCLRT
 70
   256
  9
$DIMTFAC
 40
1.0
  9
$DIMGAP
 40
0.02
  9
$LUNITS
 70
     2
  9
$LUPREC
 70
     5
  9
$SKETCHINC
 40
0.1
  9
$FILLETRAD
 40
0.01
  9
$AUNITS
 70
     0
  9
$AUPREC
 70
     0
  9
$MENU
  1
.
  9
$ELEVATION
 40
0.0
  9
$PELEVATION
 40
0.0
  9
$THICKNESS
 40
0.0
  9
$LIMCHECK
 70
     0
  9
$BLIPMODE
 70
     0
  9
$CHAMFERA
 40
0.0
  9
$CHAMFERB
 40
0.0
  9
$SKPOLY
 70
     0
  9
$TDCREATE
 40
2450919.3750775461
  9
$TDUPDATE
 40
2455791.6872468172
  9
$TDINDWG
 40
2.4002231596999999
  9
$TDUSRTIMER
 40
2.4002231596999999
  9
$USRTIMER
 70
     1
  9
$ANGBASE
 50
0.0
  9
$ANGDIR
 70
     0
  9
$PDMODE
 70
     0
  9
$PDSIZE
 40
0.0
  9
$PLINEWID
 40
0.0
  9
$COORDS
 70
     1
  9
$SPLFRAME
 70
     0
  9
$SPLINETYPE
 70
     6
  9
$SPLINESEGS
 70
     8
  9
$ATTDIA
 70
     0
  9
$ATTREQ
 70
     1
  9
$HANDLING
 70
     1
  9
$HANDSEED
  5
1A06D
  9
$SURFTAB1
 70
     6
  9
$SURFTAB2
 70
     6
  9
$SURFTYPE
 70
     6
  9
$SURFU
 70
     6
  9
$SURFV
 70
     6
  9
$UCSNAME
  2

  9
$UCSORG
 10
0.0
 20
0.0
 30
0.0
  9
$UCSXDIR
 10
1.0
 20
0.0
 30
0.0
  9
$UCSYDIR
 10
0.0
 20
1.0
 30
0.0
  9
$PUCSNAME
  2

  9
$PUCSORG
 10
0.0
 20
0.0
 30
0.0
  9
$PUCSXDIR
 10
1.0
 20
0.0
 30
0.0
  9
$PUCSYDIR
 10
0.0
 20
1.0
 30
0.0
  9
$USERI1
 70
     0
  9
$USERI2
 70
     0
  9
$USERI3
 70
     0
  9
$USERI4
 70
     0
  9
$USERI5
 70
     0
  9
$USERR1
 40
0.0
  9
$USERR2
 40
0.0
  9
$USERR3
 40
0.0
  9
$USERR4
 40
0.0
  9
$USERR5
 40
0.0
  9
$WORLDVIEW
 70
     1
  9
$SHADEDGE
 70
     3
  9
$SHADEDIF
 70
    70
  9
$TILEMODE
 70
     1
  9
$MAXACTVP
 70
    48
  9
$PLIMCHECK
 70
     0
  9
$PEXTMIN
 10
0.0
 20
0.0
 30
0.0
  9
$PEXTMAX
 10
8.5
 20
11.0
 30
0.0
  9
$PLIMMIN
 10
0.0000001811605737
 20
-0.0000001192092895
  9
$PLIMMAX
 10
8.4999999408646811
 20
10.999999640494821
  9
$UNITMODE
 70
     0
  9
$VISRETAIN
 70
     1
  9
$PLINEGEN
 70
     0
  9
$PSLTSCALE
 70
     1
  0
ENDSEC
  0
SECTION
  2
TABLES
  0
TABLE
  2
VPORT
 70
     1
  0
VPORT
  2
*ACTIVE
 70
     0
 10
0.0
 20
0.0
 11
1.0
 21
1.0
 12
-19.936975701619762
 22
-0.4605068555836621
 13
0.0
 23
0.0
 14
0.5
 24
0.5
 15
0.5
 25
0.5
 16
0.0
 26
0.0
 36
5.6148375865943736
 17
19.721987045995348
 27
0.6391778487130584
 37
0.0
 40
0.5137761514092523
 41
1.006734006734006
 42
50.0
 43
0.0
 44
0.0
 50
0.0
 51
0.0
 71
     0
 72
 20000
 73
     1
 74
     0
 75
     0
 76
     0
 77
     0
 78
     0
  0
ENDTAB
  0
TABLE
  2
LTYPE
 70
     1
  0
LTYPE
  2
CONTINUOUS
 70
     0
  3
Solid line
 72
    65
 73
     0
 40
0.0
  0
ENDTAB
  0
TABLE
  2
LAYER
 70
     5
  0
LAYER
  2
0
 70
     0
 62
     7
  6
CONTINUOUS
  0
LAYER
  2
DEFPOINTS
 70
     0
 62
     7
  6
CONTINUOUS
  0
LAYER
  2
HATCH
 70
     0
 62
     7
  6
CONTINUOUS
  0
LAYER
  2
PART
 70
     0
 62
     7
  6
CONTINUOUS
  0
LAYER
  2
HIDDEN
 70
     0
 62
     7
  6
CONTINUOUS
  0
ENDTAB
  0
TABLE
  2
STYLE
 70
     2
  0
STYLE
  2
STANDARD
 70
     0
 40
0.0
 41
1.0
 50
0.0
 71
     0
 42
0.125
  3
txt
  4

  0
STYLE
  2
ROMANS
 70
     0
 40
0.0
 41
1.0
 50
0.0
 71
     0
 42
0.1
  3
SIMPLEX.shx
  4

  0
ENDTAB
  0
TABLE
  2
VIEW
 70
     0
  0
ENDTAB
  0
TABLE
  2
UCS
 70
     0
  0
ENDTAB
  0
TABLE
  2
APPID
 70
    17
  0
APPID
  2
ACAD
 70
     0
  0
APPID
  2
ADP_SK
 70
     0
  0
APPID
  2
ADP_SOL
 70
     0
  0
APPID
  2
ACIS_LNK
 70
     0
  0
APPID
  2
AME_SOL
 70
     0
  0
APPID
  2
ACAD_MLEADERVER
 70
     0
  0
APPID
  2
ACAD_EXEMPT_FROM_CAD_STANDARDS
 70
     0
  0
APPID
  2
ACAD_PSEXT
 70
     0
  0
APPID
  2
ACDBDYNAMICBLOCKGUID
 70
     0
  0
APPID
  2
ACDBBLOCKREPETAG
 70
     0
  0
APPID
  2
ACDBDYNAMICBLOCKTRUENAME
 70
     0
  0
APPID
  2
ACAD_DSTYLE_DIMJAG
 70
     0
  0
APPID
  2
ACAD_DSTYLE_DIMTALN
 70
     0
  0
APPID
  2
ACAECLAYERSTANDARD
 70
     0
  0
APPID
  2
ACAUTHENVIRON
 70
     0
  0
APPID
  2
ACADANNOPO
 70
     0
  0
APPID
  2
ACAD_DSTYLE_DIMRADIAL_EXTENSION
 70
     0
  0
ENDTAB
  0
TABLE
  2
DIMSTYLE
 70
     2
  0
DIMSTYLE
  2
SCOTTG
 70
     0
  3

  4

  5

  6

  7

 40
0.15
 41
0.125
 42
0.1
 43
0.25
 44
0.1
 45
0.0
 46
0.0
 47
0.01
 48
0.01
140
0.125
141
0.06
142
0.0
143
25.399999999999999
144
1.0
145
0.0
146
1.0
147
0.09
 71
     1
 72
     0
 73
     1
 74
     1
 75
     0
 76
     0
 77
     0
 78
     4
170
     0
171
     1
172
     0
173
     0
174
     1
175
     0
176
   256
177
   256
178
   256
  0
DIMSTYLE
  2
STANDARD
 70
     0
  3

  4

  5

  6

  7

 40
1.0
 41
0.18
 42
0.0625
 43
0.38
 44
0.18
 45
0.0
 46
0.0
 47
0.0
 48
0.0
140
0.18
141
0.09
142
0.0
143
25.399999999999999
144
1.0
145
0.0
146
1.0
147
0.09
 71
     0
 72
     0
 73
     1
 74
     1
 75
     0
 76
     0
 77
     0
 78
     0
170
     0
171
     2
172
     0
173
     0
174
     0
175
     0
176
     0
177
     0
178
     0
  0
ENDTAB
  0
ENDSEC
  0
SECTION
  2
BLOCKS
  0
BLOCK
  8
0
  2
$MODEL_SPACE
 70
     0
 10
0.0
 20
0.0
 30
0.0
  3
$MODEL_SPACE
  1

  0
ENDBLK
  5
1A
  8
0
  0
BLOCK
 67
     1
  8
0
  2
$PAPER_SPACE
 70
     0
 10
0.0
 20
0.0
 30
0.0
  3
$PAPER_SPACE
  1

  0
ENDBLK
  5
B932
 67
     1
  8
0
  0
BLOCK
  8
0
 62
     1
  2
*X4
 70
     1
 10
0.0
 20
0.0
 30
0.0
  3
*X4
  1

  0
LINE
  5
1A018
  8
0
 62
     0
 10
-0.0688400439169898
 20
0.3101986356357722
 30
0.0
 11
-0.0849351414357353
 21
0.3702663573285063
 31
0.0
  0
LINE
  5
1A019
  8
0
 62
     0
 10
-0.1022880242664295
 20
0.3867319063959922
 30
0.0
 11
-0.104989347671425
 21
0.3968133825911106
 31
0.0
  0
LINE
  5
1A01A
  8
0
 62
     0
 10
-0.0729339833385268
 20
0.2771811342456036
 30
0.0
 11
-0.0756950320721799
 21
0.2874855084017707
 31
0.0
  0
LINE
  5
1A01B
  8
0
 62
     0
 10
-0.1197188647883602
 20
0.4034883975280153
 30
0.0
 11
-0.1217257508895124
 21
0.4109781984225194
 31
0.0
  0
LINE
  5
1A01C
  8
0
 62
     0
 10
-0.0803457257776661
 20
0.2565458422866325
 30
0.0
 11
-0.0824123372074757
 21
0.2642585411421852
 31
0.0
  0
LINE
  5
1A01D
  8
0
 62
     0
 10
-0.1354591308305024
 20
0.4139355788074877
 30
0.0
 11
-0.1371583685584607
 21
0.4202772203423662
 31
0.0
  0
LINE
  5
1A01E
  8
0
 62
     0
 10
-0.0890612537659448
 20
0.2407763442392232
 30
0.0
 11
-0.0908202168225605
 21
0.2473408837351503
 31
0.0
  0
LINE
  5
1A01F
  8
0
 62
     0
 10
-0.1502624700000523
 20
0.4208861013954684
 30
0.0
 11
-0.151785689859202
 21
0.4265708353009137
 31
0.0
  0
LINE
  5
1A020
  8
0
 62
     0
 10
-0.0985820781224298
 20
0.2280122531531115
 30
0.0
 11
-0.1001650233102371
 21
0.2339198850196045
 31
0.0
  0
LINE
  5
1A021
  8
0
 62
     0
 10
-0.1644131838280143
 20
0.4254009930503369
 30
0.0
 11
-0.1658244670616482
 21
0.4306679737821293
 31
0.0
  0
LINE
  5
1A022
  8
0
 62
     0
 10
-0.1086914465772102
 20
0.2174446385443325
 30
0.0
 11
-0.1101624551395017
 21
0.2229345172371744
 31
0.0
  0
LINE
  5
1A023
  8
0
 62
     0
 10
-0.178053331972118
 20
0.4280104276324455
 30
0.0
 11
-0.179390329811552
 21
0.433000171498823
 31
0.0
  0
LINE
  5
1A024
  8
0
 62
     0
 10
-0.119116050681745
 20
0.2080534993967946
 30
0.0
 11
-0.120670452652625
 21
0.2138546065275033
 31
0.0
  0
LINE
  5
1A025
  8
0
 62
     0
 10
-0.1912634440493748
 20
0.4290149457639921
 30
0.0
 11
-0.1925513072337572
 21
0.4338213166013052
 31
0.0
  0
LINE
  5
1A026
  8
0
 62
     0
 10
-0.1293517825511536
 20
0.1979574794716257
 30
0.0
 11
-0.1316084862325948
 21
0.2063796122683916
 31
0.0
  0
LINE
  5
1A027
  8
0
 62
     0
 10
-0.2040914825995257
 20
0.4285935460801547
 30
0.0
 11
-0.2053488530209389
 21
0.4332861163768041
 31
0.0
  0
LINE
  5
1A028
  8
0
 62
     0
 10
-0.1395875144205625
 20
0.1878614595464585
 30
0.0
 11
-0.1429285933396704
 21
0.2003305358246665
 31
0.0
  0
LINE
  5
1A029
  8
0
 62
     0
 10
-0.1513864930156876
 20
0.1835995558264285
 30
0.0
 11
-0.154602866752539
 21
0.1956032260284885
 31
0.0
  0
LINE
  5
1A02A
  8
0
 62
     0
 10
-0.2165653548438842
 20
0.4268503797487702
 30
0.0
 11
-0.2178074329172495
 21
0.4314858782255371
 31
0.0
  0
LINE
  5
1A02B
  8
0
 62
     0
 10
-0.1498232462899716
 20
0.1777654396212904
 30
0.0
 11
-0.1498516143595607
 21
0.1778713106983103
 31
0.0
  0
LINE
  5
1A02C
  8
0
 62
     0
 10
-0.2286987486816532
 20
0.4238365307051142
 30
0.0
 11
-0.2299391505299351
 21
0.428465773424704
 31
0.0
  0
LINE
  5
1A02D
  8
0
 62
     0
 10
-0.1644456149142646
 20
0.1840405709397004
 30
0.0
 11
-0.1666176185719965
 21
0.1921465989445803
 31
0.0
  0
LINE
  5
1A02E
  8
0
 62
     0
 10
-0.2404936339371095
 20
0.4195593504334685
 30
0.0
 11
-0.2417457699450589
 21
0.4242323856331227
 31
0.0
  0
LINE
  5
1A02F
  8
0
 62
     0
 10
-0.1773865671693906
 20
0.1840405709397004
 30
0.0
 11
-0.178970878973767
 21
0.1899533030886635
 31
0.0
  0
LINE
  5
1A030
  8
0
 62
     0
 10
-0.2519406034508211
 20
0.4139837309368791
 30
0.0
 11
-0.2532189962999543
 21
0.4187547580018763
 31
0.0
  0
LINE
  5
1A031
  8
0
 62
     0
 10
-0.1903275194245169
 20
0.1840405709397013
 30
0.0
 11
-0.1916720551172821
 21
0.1890584464576914
 31
0.0
  0
LINE
  5
1A032
  8
0
 62
     0
 10
-0.2630172015918031
 20
0.4070258666595939
 30
0.0
 11
-0.2643391251712306
 21
0.4119593526217403
 31
0.0
  0
LINE
  5
1A033
  8
0
 62
     0
 10
-0.2032684716796427
 20
0.1840405709397004
 30
0.0
 11
-0.2047436026335268
 21
0.1895458346074132
 31
0.0
  0
LINE
  5
1A034
  8
0
 62
     0
 10
-0.2736834878620133
 20
0.3985366976336397
 30
0.0
 11
-0.2750715077447972
 21
0.4037168583581048
 31
0.0
  0
LINE
  5
1A035
  8
0
 62
     0
 10
-0.2162094239347687
 20
0.1840405709397004
 30
0.0
 11
-0.218225462020543
 21
0.191564527505804
 31
0.0
  0
LINE
  5
1A036
  8
0
 62
     0
 10
-0.2838724967825794
 20
0.3882663052895108
 30
0.0
 11
-0.2853591609929873
 21
0.3938146116565475
 31
0.0
  0
LINE
  5
1A037
  8
0
 62
     0
 10
-0.2291503761898947
 20
0.1840405709397004
 30
0.0
 11
-0.232184598757204
 21
0.1953644437223705
 31
0.0
  0
LINE
  5
1A038
  8
0
 62
     0
 10
-0.2934690005689631
 20
0.3757846536808689
 30
0.0
 11
-0.295107059112766
 21
0.3818979713921138
 31
0.0
  0
LINE
  5
1A039
  8
0
 62
     0
 10
-0.242091328445021
 20
0.1840405709397013
 30
0.0
 11
-0.2467362406280469
 21
0.201375619203449
 31
0.0
  0
LINE
  5
1A03A
  8
0
 62
     0
 10
-0.2598970625812498
 20
0.2021961840877173
 30
0.0
 11
-0.2620985412557011
 21
0.2104122143525489
 31
0.0
  0
LINE
  5
1A03B
  8
0
 62
     0
 10
-0.3022548455985354
 20
0.3602775824042057
 30
0.0
 11
-0.3041446329156334
 21
0.3673303646871142
 31
0.0
  0
LINE
  5
1A03C
  8
0
 62
     0
 10
-0.2550322807001468
 20
0.1840405709397004
 30
0.0
 11
-0.2576551740288118
 21
0.1938293421051114
 31
0.0
  0
LINE
  5
1A03D
  8
0
 62
     0
 10
-0.2763279766940978
 20
0.2152208990572131
 30
0.0
 11
-0.2787800472790765
 21
0.2243721510640979
 31
0.0
  0
LINE
  5
1A03E
  8
0
 62
     0
 10
-0.3097214852323871
 20
0.3398471695650933
 30
0.0
 11
-0.3121138304887081
 21
0.3487755236109304
 31
0.0
  0
LINE
  5
1A03F
  8
0
 62
     0
 10
-0.2679732329552731
 20
0.1840405709397013
 30
0.0
 11
-0.2679818333335677
 21
0.1840726679884605
 31
0.0
  0
LINE
  5
1A040
  8
0
 62
     0
 10
-0.3137154118653973
 20
0.3064564153667373
 30
0.0
 11
-0.3179344281120104
 21
0.3222019983570563
 31
0.0
  0
LINE
  5
1A041
  8
0
 62
     0
 10
-0.2946555247280222
 20
0.2353239481835248
 30
0.0
 11
-0.2989342663032928
 21
0.2512924291348924
 31
0.0
  0
ENDBLK
  5
1A043
  8
0
 62
     1
  0
BLOCK
  8
0
 62
     1
  2
*X5
 70
     1
 10
0.0
 20
0.0
 30
0.0
  3
*X5
  1

  0
LINE
  5
1A04C
  8
0
 62
     0
 10
-0.3500275875617338
 20
-0.0680673379689827
 30
0.0
 11
-0.3286028148757567
 21
-0.0466425652830056
 31
0.0
  0
LINE
  5
1A04D
  8
0
 62
     0
 10
-0.3485961880573911
 20
-0.0224417646404818
 30
0.0
 11
-0.3285755515815887
 21
-0.0024211281646793
 31
0.0
  0
LINE
  5
1A04E
  8
0
 62
     0
 10
-0.2063097288797278
 20
0.1640388683613412
 30
0.0
 11
-0.186308026301369
 21
0.1840405709396999
 31
0.0
  0
LINE
  5
1A04F
  8
0
 62
     0
 10
-0.348569833884258
 20
0.021778763356811
 30
0.0
 11
-0.3285482882874207
 21
0.0418003089536483
 31
0.0
  0
LINE
  5
1A050
  8
0
 62
     0
 10
-0.2505032319061584
 20
0.1640395391590701
 30
0.0
 11
-0.2305022001255286
 21
0.1840405709396999
 31
0.0
  0
LINE
  5
1A051
  8
0
 62
     0
 10
-0.3485434797111253
 20
0.0659992913541032
 30
0.0
 11
-0.3285210249932531
 21
0.0860217460719755
 31
0.0
  0
LINE
  5
1A052
  8
0
 62
     0
 10
-0.2946967349325895
 20
0.1640402099567986
 30
0.0
 11
-0.2746963739496877
 21
0.1840405709396999
 31
0.0
  0
LINE
  5
1A053
  8
0
 62
     0
 10
-0.3485171255379922
 20
0.1102198193513955
 30
0.0
 11
-0.3284937616990851
 21
0.1302431831903026
 31
0.0
  0
LINE
  5
1A054
  8
0
 62
     0
 10
-0.3484907713648595
 20
0.1544403473486877
 30
0.0
 11
-0.3188905477738468
 21
0.1840405709397004
 31
0.0
  0
ENDBLK
  5
1A056
  8
0
 62
     1
  0
ENDSEC
  0
SECTION
  2
ENTITIES
  0
CIRCLE
  5
19CE1
  8
PART
 10
-0.1937432395087433
 20
0.3090405709397003
 30
0.0
 40
0.055
  0
INSERT
  5
19CE2
  8
HATCH
  6
CONTINUOUS
  2
*X4
 10
0.0
 20
0.0
 30
0.0
1001
ACAD
1000
HATCH
1002
{
1070
    19
1000
ANSI31
1040
0.1
1040
1.047197551196597
1000
ASC_BOUNDS
1070
     2
1070
     2
1070
     1
1005
19CE3
1070
     2
1070
     1
1005
19CE4
1000
ASC_SEEDPOINT
1011
1.233419733562072
1021
0.0
1031
0.0
1021
-3.7754981301466488
1031
0.0
1000
R14_HATCH_DATA
1000
19CE2
1011
1.0
1021
0.0
1031
0.0
1021
0.0
1031
0.0
1011
0.0
1021
0.0
1031
0.0
1021
1.0
1031
0.0
1011
0.0
1021
0.0
1031
0.0
1021
0.0
1031
1.0
1040
0.0
1010
0.0
1020
0.0
1030
1.0
1000
ANSI31
1070
     0
1070
     1
1071
        2
1071
        1
1071
        6
1070
     1
1040
-0.1537432395087441
1040
0.1840405709397003
1040
-0.2687784229926413
1040
0.1840405709397003
1070
     2
1040
-0.2688338755864341
1040
0.1953177951551944
1040
0.0112773605509749
1040
4.7173061608724796
1040
7.2651836545592534
1070
     1
1070
     2
1040
-0.1937379375614383
1040
0.308922540934883
1040
0.124904412470119
1040
2.1544600213474059
1040
7.1805376251590829
1070
     0
1070
     1
1040
-0.1158373303114237
1040
0.2112874670905692
1040
-0.1503680053060334
1040
0.1772281162573382
1070
     2
1040
-0.1532123151800959
1040
0.1800405709396981
1040
0.0040000000000022
1040
5.5034184290619548
1040
7.8539816339748079
1070
     1
1070
     1
1040
-0.1532123151800973
1040
0.1840405709397003
1040
-0.1537432395087441
1040
0.1840405709397003
1071
        1
1005
19CE4
1071
       16
1071
        1
1070
     2
1040
-0.1937432395087433
1040
0.3090405709397003
1040
0.12
1040
0.0
1040
6.2831853071795862
1070
     1
1071
        1
1005
19CE3
1070
     0
1070
     1
1040
1.047197551196597
1040
0.1
1070
     0
1070
     1
1040
1.832595714594045
1040
0.9128404258154725
1040
-5.4785195720398177
1040
-0.0120740728286134
1040
-0.0032352380637815
1070
     0
1071
        1
1040
1.233419733562072
1040
-3.7754981301466488
1040
0.0
1002
}
  0
CIRCLE
  5
19CE3
  8
PART
 10
-0.1937432395087433
 20
0.3090405709397003
 30
0.0
 40
0.12
1001
ACAD
1000
ASC_BOUNDS
1002
{
1070
    19
1005
19CE2
1002
}
  0
POLYLINE
  5
19CE4
  8
PART
 66
     1
 10
0.0
 20
0.0
 30
0.0
 70
     1
1001
ACAD
1000
ASC_BOUNDS
1002
{
1070
    19
1005
19CE2
1002
}
  0
VERTEX
  5
1A044
  8
PART
 10
-0.1537432395087441
 20
0.1840405709397003
 30
0.0
  0
VERTEX
  5
1A045
  8
PART
 10
-0.2687784229926413
 20
0.1840405709397003
 30
0.0
 42
0.7398437723911828
  0
VERTEX
  5
1A046
  8
PART
 10
-0.2625708601802279
 20
0.204696147836679
 30
0.0
 42
-3.0764518266242402
  0
VERTEX
  5
1A047
  8
PART
 10
-0.1158373303114237
 20
0.2112874670905692
 30
0.0
  0
VERTEX
  5
1A048
  8
PART
 10
-0.1503680053060334
 20
0.1772281162573382
 30
0.0
 42
0.6661441893160363
  0
VERTEX
  5
1A049
  8
PART
 10
-0.1532123151800973
 20
0.1840405709397003
 30
0.0
  0
SEQEND
  5
1A04A
  8
PART
  0
CIRCLE
  5
19CE5
  8
HATCH
 10
-0.1772771872342143
 20
0.4006444187548305
 30
0.0
 40
0.0045
  0
CIRCLE
  5
19CE6
  8
HATCH
 10
-0.1693830360094657
 20
0.2040656515597287
 30
0.0
 40
0.003375
  0
CIRCLE
  5
19CE7
  8
HATCH
 10
-0.2226529241220236
 20
0.2183521265991287
 30
0.0
 40
0.00225
  0
CIRCLE
  5
19CE8
  8
HATCH
 10
-0.2417088168278012
 20
0.2252789062190245
 30
0.0
 40
0.00225
  0
LINE
  5
19CE9
  8
HATCH
 10
-0.2453377635683867
 20
0.2110147911473516
 30
0.0
 11
-0.2453377635683867
 21
0.2110147911473516
 31
0.0
  0
CIRCLE
  5
19CEA
  8
HATCH
 10
-0.1975337816787379
 20
0.2270106011239984
 30
0.0
 40
0.00225
  0
LINE
  5
19CEB
  8
HATCH
 10
-0.1828377635683867
 20
0.2110147911473516
 30
0.0
 11
-0.1828377635683867
 21
0.2110147911473516
 31
0.0
  0
LINE
  5
19CEC
  8
HATCH
 10
-0.2273811891769688
 20
0.2343506256494646
 30
0.0
 11
-0.2273811891769688
 21
0.2343506256494646
 31
0.0
  0
LINE
  5
19CED
  8
HATCH
 10
-0.2586311891769688
 20
0.2343506256494646
 30
0.0
 11
-0.2586311891769688
 21
0.2343506256494646
 31
0.0
  0
CIRCLE
  5
19CEE
  8
HATCH
 10
-0.2741595829422538
 20
0.2365723892344817
 30
0.0
 40
0.00225
  0
LINE
  5
19CEF
  8
HATCH
 10
-0.2621704617642868
 20
0.3222944507963382
 30
0.0
 11
-0.2621704617642868
 21
0.3222944507963382
 31
0.0
  0
CIRCLE
  5
19CF0
  8
HATCH
 10
-0.2612414798746381
 20
0.3695402607729851
 30
0.0
 40
0.00225
  0
CIRCLE
  5
19CF1
  8
HATCH
 10
-0.2015301428987064
 20
0.3945835024406907
 30
0.0
 40
0.00225
  0
LINE
  5
19CF2
  8
HATCH
 10
-0.2493341247883551
 20
0.3785876924640438
 30
0.0
 11
-0.2493341247883551
 21
0.3785876924640438
 31
0.0
  0
CIRCLE
  5
19CF3
  8
HATCH
 10
-0.2457051780477697
 20
0.3928518075357167
 30
0.0
 40
0.00225
  0
CIRCLE
  5
19CF4
  8
HATCH
 10
-0.2266492853419921
 20
0.385925027915821
 30
0.0
 40
0.00225
  0
CIRCLE
  5
19CF5
  8
HATCH
 10
-0.2405081006605469
 20
0.3668763839611077
 30
0.0
 40
0.0045
  0
CIRCLE
  5
19CF6
  8
HATCH
 10
-0.2828213497306058
 20
0.2729379611012418
 30
0.0
 40
0.00225
  0
CIRCLE
  5
19CF7
  8
HATCH
 10
-0.3018772424363851
 20
0.2798647407211376
 30
0.0
 40
0.00225
  0
CIRCLE
  5
19CF8
  8
HATCH
 10
-0.3002194376364786
 20
0.3418331422934021
 30
0.0
 40
0.0045
  0
CIRCLE
  5
19CF9
  8
HATCH
 10
-0.2776988555295718
 20
0.3245162143813553
 30
0.0
 40
0.00225
  0
LINE
  5
19CFA
  8
HATCH
 10
-0.2934204617642868
 20
0.3222944507963382
 30
0.0
 11
-0.2934204617642868
 21
0.3222944507963382
 31
0.0
  0
CIRCLE
  5
19CFB
  8
HATCH
 10
-0.2863606223179238
 20
0.3608817862481154
 30
0.0
 40
0.00225
  0
LINE
  5
19CFC
  8
HATCH
 10
-0.2024591247883551
 20
0.4098376924640438
 30
0.0
 11
-0.2024591247883551
 21
0.4098376924640438
 31
0.0
  0
LINE
  5
19CFD
  8
HATCH
 10
-0.1712091247883551
 20
0.4098376924640438
 30
0.0
 11
-0.1712091247883551
 21
0.4098376924640438
 31
0.0
  0
LINE
  5
19CFE
  8
HATCH
 10
-0.2337091247883551
 20
0.4098376924640438
 30
0.0
 11
-0.2337091247883551
 21
0.4098376924640438
 31
0.0
  0
CIRCLE
  5
19CFF
  8
HATCH
 10
-0.2119242688161338
 20
0.4153638201626845
 30
0.0
 40
0.00225
  0
CIRCLE
  5
19D00
  8
HATCH
 10
-0.1113509065403468
 20
0.246680844890652
 30
0.0
 40
0.00225
  0
LINE
  5
19D01
  8
HATCH
 10
-0.1270725127750618
 20
0.244459081305635
 30
0.0
 11
-0.1270725127750618
 21
0.244459081305635
 31
0.0
  0
LINE
  5
19D02
  8
HATCH
 10
-0.0958225127750618
 20
0.244459081305635
 30
0.0
 11
-0.0958225127750618
 21
0.244459081305635
 31
0.0
  0
CIRCLE
  5
19D03
  8
HATCH
 10
-0.1465119062125117
 20
0.2190150436567783
 30
0.0
 40
0.0045
  0
CIRCLE
  5
19D04
  8
HATCH
 10
-0.1326530908939569
 20
0.2380636876114916
 30
0.0
 40
0.00225
  0
CIRCLE
  5
19D05
  8
HATCH
 10
-0.1517089835997345
 20
0.2449904672313873
 30
0.0
 40
0.00225
  0
LINE
  5
19D06
  8
HATCH
 10
-0.1553379303403199
 20
0.2307263521597144
 30
0.0
 11
-0.1553379303403199
 21
0.2307263521597144
 31
0.0
  0
CIRCLE
  5
19D07
  8
HATCH
 10
-0.1075339484506712
 20
0.2467221621363612
 30
0.0
 40
0.00225
  0
CIRCLE
  5
19D08
  8
HATCH
 10
-0.1113509065403468
 20
0.3149131670114275
 30
0.0
 40
0.00225
  0
LINE
  5
19D09
  8
HATCH
 10
-0.0958225127750618
 20
0.3126914034264105
 30
0.0
 11
-0.0958225127750618
 21
0.3126914034264105
 31
0.0
  0
CIRCLE
  5
19D0A
  8
HATCH
 10
-0.1200126733286988
 20
0.3512787388781876
 30
0.0
 40
0.00225
  0
CIRCLE
  5
19D0B
  8
HATCH
 10
-0.0948935308854131
 20
0.3599372134030573
 30
0.0
 40
0.00225
  0
LINE
  5
19D0C
  8
HATCH
 10
-0.0801975127750618
 20
0.3439414034264105
 30
0.0
 11
-0.0801975127750618
 21
0.3439414034264105
 31
0.0
  0
CIRCLE
  5
19D0D
  8
HATCH
 10
-0.1200126733286988
 20
0.2830464167574122
 30
0.0
 40
0.00225
  0
CIRCLE
  5
19D0E
  8
HATCH
 10
-0.0948935308854131
 20
0.2917048912822819
 30
0.0
 40
0.00225
  0
CIRCLE
  5
19D0F
  8
HATCH
 10
-0.145228651560162
 20
0.3945834918718444
 30
0.0
 40
0.00225
  0
LINE
  5
19D10
  8
HATCH
 10
-0.1399591247883551
 20
0.4098376924640438
 30
0.0
 11
-0.1399591247883551
 21
0.4098376924640438
 31
0.0
  0
INSERT
  5
19D11
  8
HATCH
  6
CONTINUOUS
  2
*X5
 10
0.0
 20
0.0
 30
0.0
1001
ACAD
1000
HATCH
1002
{
1070
    19
1000
ANSI31
1040
0.25
1040
0.0
1000
ASC_BOUNDS
1070
     1
1070
     2
1070
     1
1005
19D14
1000
ASC_SEEDPOINT
1011
0.9805805780437102
1021
0.0
1031
0.0
1021
-5.3700867192583202
1031
0.0
1000
R14_HATCH_DATA
1000
19D11
1011
1.0
1021
0.0
1031
0.0
1021
0.0
1031
0.0
1011
0.0
1021
0.0
1031
0.0
1021
1.0
1031
0.0
1011
0.0
1021
0.0
1031
0.0
1021
0.0
1031
1.0
1040
0.0
1010
0.0
1020
0.0
1030
1.0
1000
ANSI31
1070
     0
1070
     1
1071
        1
1071
        1
1071
       11
1070
     1
1040
-0.1534764644980744
1040
0.1840405709397003
1040
-0.3384790901907675
1040
0.1840405709397003
1070
     2
1040
-0.3384790901907675
1040
0.1740405709397005
1040
0.0099999999999998
1040
1.5707963267948959
1040
3.14159265358979
1070
     1
1070
     1
1040
-0.3484790901907673
1040
0.1740405709397005
1040
-0.3486149922479698
1040
-0.0539939302776001
1070
     1
1040
-0.3486149922479698
1040
-0.0539939302776001
1040
-0.3611149922479691
1040
-0.0539939302776001
1070
     1
1040
-0.3611149922479691
1040
-0.0539939302776001
1040
-0.3464701083133399
1040
-0.0725828992958296
1070
     2
1040
-0.3386149922479682
1040
-0.0663944300505693
1040
0.0099999999999997
1040
3.808866577206397
1040
6.2831853071795827
1070
     1
1070
     1
1040
-0.3286149922479684
1040
-0.0663944300505693
1040
-0.3284790901907642
1040
0.1540405709397009
1070
     2
1040
-0.3184790901907651
1040
0.1540405709397016
1040
0.0099999999999991
1040
3.1415926535897198
1040
4.7124041590349206
1070
     0
1070
     1
1040
-0.3184789384042628
1040
0.1640405709385487
1040
-0.1971321202430414
1040
0.1640387290576298
1070
     2
1040
-0.1963568218899294
1040
0.2525497035526197
1040
0.0885143699835743
1040
4.7036298572376181
1040
5.282578820130519
1070
     1
1070
     2
1040
-0.1534781614944897
1040
0.179038830134913
1040
0.0050017410926667
1040
6.0818184704137073
1040
7.8536423528288983
1070
     1
1071
        1
1005
19D14
1070
     0
1070
     1
1040
0.0
1040
0.25
1070
     0
1070
     1
1040
0.7853981633974483
1040
0.9128404258154725
1040
-5.4785195720398177
1040
-0.0220970869120796
1040
0.0220970869120796
1070
     0
1071
        1
1040
0.9805805780437102
1040
-5.3700867192583202
1040
0.0
1002
}
  0
POLYLINE
  5
19D12
  8
PART
 66
     1
 10
0.0
 20
0.0
 30
0.0
 70
     1
  0
VERTEX
  5
1A057
  8
PART
 10
-0.3285591639553396
 20
0.0231598264057914
 30
0.0
  0
VERTEX
  5
1A058
  8
PART
 10
-0.3285417019969998
 20
0.0514833623609618
 30
0.0
  0
VERTEX
  5
1A059
  8
PART
 10
-0.2618531454943274
 20
0.0869422968373223
 30
0.0
 42
-0.9999999999999841
  0
VERTEX
  5
1A05A
  8
PART
 10
-0.2501163564246813
 20
0.0648686070158488
 30
0.0
  0
SEQEND
  5
1A05B
  8
PART
  0
POLYLINE
  5
19D13
  8
PART
 66
     1
 10
0.0
 20
0.0
 30
0.0
 70
     1
  0
VERTEX
  5
1A05C
  8
PART
 10
-0.3286057276428391
 20
-0.0513671134469346
 30
0.0
  0
VERTEX
  5
1A05D
  8
PART
 10
-0.3285882656845012
 20
-0.023043577491766
 30
0.0
  0
VERTEX
  5
1A05E
  8
PART
 10
-0.2617624484514043
 20
0.0124883398095602
 30
0.0
 42
-0.9999999999999844
  0
VERTEX
  5
1A05F
  8
PART
 10
-0.2500256593817565
 20
-0.0095853500119133
 30
0.0
  0
SEQEND
  5
1A060
  8
PART
  0
POLYLINE
  5
19D14
  8
PART
 66
     1
 10
0.0
 20
0.0
 30
0.0
 70
     1
1001
ACAD
1000
ASC_BOUNDS
1002
{
1070
    19
1005
19D11
1002
}
  0
VERTEX
  5
1A061
  8
PART
 10
-0.1534764644980744
 20
0.1840405709397003
 30
0.0
  0
VERTEX
  5
1A062
  8
PART
 10
-0.3384790901907675
 20
0.1840405709397003
 30
0.0
 42
0.4142135623730938
  0
VERTEX
  5
1A063
  8
PART
 10
-0.3484790901907673
 20
0.1740405709397005
 30
0.0
  0
VERTEX
  5
1A064
  8
PART
 10
-0.3486149922479698
 20
-0.0539939302776001
 30
0.0
  0
VERTEX
  5
1A065
  8
PART
 10
-0.3611149922479691
 20
-0.0539939302776001
 30
0.0
  0
VERTEX
  5
1A066
  8
PART
 10
-0.3464701083133399
 20
-0.0725828992958296
 30
0.0
 42
0.7117669720454836
  0
VERTEX
  5
1A067
  8
PART
 10
-0.3286149922479684
 20
-0.0663944300505693
 30
0.0
  0
VERTEX
  5
1A068
  8
PART
 10
-0.3284790901907642
 20
0.1540405709397009
 30
0.0
 42
-0.4142180081038278
  0
VERTEX
  5
1A069
  8
PART
 10
-0.3184789384042628
 20
0.1640405709385487
 30
0.0
  0
VERTEX
  5
1A06A
  8
PART
 10
-0.1971321202430414
 20
0.1640387290576298
 30
0.0
 42
0.1457564761322232
  0
VERTEX
  5
1A06B
  8
PART
 10
-0.148577485012747
 20
0.1780384382220282
 30
0.0
 42
0.474396685197588
  0
SEQEND
  5
1A06C
  8
PART
  0
VIEWPORT
  5
B94C
 67
     1
  8
0
 10
4.2500000197906038
 20
5.4999999660067251
 30
0.0
 40
11.149243936702049
 41
11.074667054182299
 68
     1
 69
     1
1001
ACAD
1000
MVIEW
1002
{
1070
    16
1010
0.0
1020
0.0
1030
0.0
1010
0.0
1020
0.0
1030
1.0
1040
0.0
1040
11.074667054182299
1040
4.2500000197906038
1040
5.4999999660067251
1040
50.0
1040
0.0
1040
0.0
1070
     0
1070
   500
1070
     1
1070
     1
1070
     0
1070
     0
1070
     0
1070
     0
1040
0.0
1040
0.0
1040
0.0
1040
0.5
1040
0.5
1040
0.5
1040
0.5
1070
     0
1002
{
1002
}
1002
}
  0
ENDSEC
  0
EOF
